  0
SECTION
  2
HEADER
  9
$ANGBASE
  50
0.0
  9
$ANGDIR
  70
  1
  9
$MEASUREMENT
  70
0
  0
ENDSEC
  0
SECTION
  2
TABLES
  0
TABLE
  2
LTYPE
  70
1
  0
LTYPE
  2
CONTINUOUS
  70
0
  3
Solid line
  72
65
  73
0
  40
0.0
  0
ENDTAB
  0
TABLE
  2
STYLE
  70
4
  0
STYLE
  2
KICAD
  70
0
  40
0
  41
1
  42
1
  50
0
  71
0
  3
isocp.shx
  0
STYLE
  2
KICADB
  70
0
  40
0
  41
1
  42
1
  50
0
  71
0
  3
isocp.shx
  0
STYLE
  2
KICADI
  70
0
  40
0
  41
1
  42
1
  50
15
  71
0
  3
isocp.shx
  0
STYLE
  2
KICADBI
  70
0
  40
0
  41
1
  42
1
  50
15
  71
0
  3
isocp.shx
  0
ENDTAB
  0
TABLE
  2
LAYER
  70
24
  0
LAYER
  2
BLACK
  70
0
  62
250
  6
CONTINUOUS
  0
LAYER
  2
BLUE
  70
0
  62
5
  6
CONTINUOUS
  0
LAYER
  2
GREEN
  70
0
  62
3
  6
CONTINUOUS
  0
LAYER
  2
CYAN
  70
0
  62
4
  6
CONTINUOUS
  0
LAYER
  2
RED
  70
0
  62
1
  6
CONTINUOUS
  0
LAYER
  2
MAGENTA
  70
0
  62
6
  6
CONTINUOUS
  0
LAYER
  2
BROWN
  70
0
  62
54
  6
CONTINUOUS
  0
LAYER
  2
LIGHTGRAY
  70
0
  62
9
  6
CONTINUOUS
  0
LAYER
  2
DARKGRAY
  70
0
  62
8
  6
CONTINUOUS
  0
LAYER
  2
LIGHTBLUE
  70
0
  62
171
  6
CONTINUOUS
  0
LAYER
  2
LIGHTGREEN
  70
0
  62
91
  6
CONTINUOUS
  0
LAYER
  2
LIGHTCYAN
  70
0
  62
131
  6
CONTINUOUS
  0
LAYER
  2
LIGHTRED
  70
0
  62
11
  6
CONTINUOUS
  0
LAYER
  2
LIGHTMAGENTA
  70
0
  62
221
  6
CONTINUOUS
  0
LAYER
  2
YELLOW
  70
0
  62
2
  6
CONTINUOUS
  0
LAYER
  2
WHITE
  70
0
  62
7
  6
CONTINUOUS
  0
LAYER
  2
DARKDARKGRAY
  70
0
  62
251
  6
CONTINUOUS
  0
LAYER
  2
DARKBLUE
  70
0
  62
178
  6
CONTINUOUS
  0
LAYER
  2
DARKGREEN
  70
0
  62
98
  6
CONTINUOUS
  0
LAYER
  2
DARKCYAN
  70
0
  62
138
  6
CONTINUOUS
  0
LAYER
  2
DARKRED
  70
0
  62
18
  6
CONTINUOUS
  0
LAYER
  2
DARKMAGENTA
  70
0
  62
228
  6
CONTINUOUS
  0
LAYER
  2
DARKBROWN
  70
0
  62
58
  6
CONTINUOUS
  0
LAYER
  2
LIGHTYELLOW
  70
0
  62
51
  6
CONTINUOUS
  0
ENDTAB
  0
ENDSEC
  0
SECTION
  2
ENTITIES
0
LINE
8
BLACK
10
106.934
20
-55.3085
11
202.946
21
-55.3085
0
LINE
8
BLACK
10
106.934
20
-54.9275
11
202.946
21
-54.9275
0
ARC
8
BLACK
10
202.946
20
-55.118
40
0.1905
50
270
51
450
0
ARC
8
BLACK
10
106.934
20
-55.118
40
0.1905
50
90
51
270
0
LINE
8
BLACK
10
100.084
20
-62.2377
11
107.069
21
-55.2527
0
LINE
8
BLACK
10
99.8143
20
-61.9683
11
106.799
21
-54.9833
0
ARC
8
BLACK
10
106.934
20
-55.118
40
0.1905
50
315
51
495
0
ARC
8
BLACK
10
99.949
20
-62.103
40
0.1905
50
135
51
315
0
LINE
8
BLACK
10
100.14
20
-157.988
11
100.14
21
-62.103
0
LINE
8
BLACK
10
99.7585
20
-157.988
11
99.7585
21
-62.103
0
ARC
8
BLACK
10
99.949
20
-62.103
40
0.1905
50
360
51
540
0
ARC
8
BLACK
10
99.949
20
-157.988
40
0.1905
50
180
51
360
0
LINE
8
BLACK
10
107.196
20
-164.965
11
100.084
21
-157.853
0
LINE
8
BLACK
10
106.926
20
-165.235
11
99.8143
21
-158.123
0
ARC
8
BLACK
10
99.949
20
-157.988
40
0.1905
50
405
51
585
0
ARC
8
BLACK
10
107.061
20
-165.1
40
0.1905
50
225
51
405
0
LINE
8
BLACK
10
107.061
20
-165.291
11
202.819
21
-165.291
0
LINE
8
BLACK
10
107.061
20
-164.91
11
202.819
21
-164.91
0
ARC
8
BLACK
10
202.819
20
-165.1
40
0.1905
50
270
51
450
0
ARC
8
BLACK
10
107.061
20
-165.1
40
0.1905
50
90
51
270
0
LINE
8
BLACK
10
209.796
20
-157.853
11
202.684
21
-164.965
0
LINE
8
BLACK
10
210.066
20
-158.123
11
202.954
21
-165.235
0
ARC
8
BLACK
10
202.819
20
-165.1
40
0.1905
50
135
51
315
0
ARC
8
BLACK
10
209.931
20
-157.988
40
0.1905
50
-45
51
135
0
LINE
8
BLACK
10
210.122
20
-157.988
11
210.122
21
-62.103
0
LINE
8
BLACK
10
209.741
20
-157.988
11
209.741
21
-62.103
0
ARC
8
BLACK
10
209.931
20
-62.103
40
0.1905
50
360
51
540
0
ARC
8
BLACK
10
209.931
20
-157.988
40
0.1905
50
180
51
360
0
LINE
8
BLACK
10
202.811
20
-55.2527
11
209.796
21
-62.2377
0
LINE
8
BLACK
10
203.081
20
-54.9833
11
210.066
21
-61.9683
0
ARC
8
BLACK
10
209.931
20
-62.103
40
0.1905
50
225
51
405
0
ARC
8
BLACK
10
202.946
20
-55.118
40
0.1905
50
45
51
225
0
LINE
8
BLACK
10
141.451
20
-55.118
11
141.451
21
-50.8
0
LINE
8
BLACK
10
141.251
20
-55.118
11
141.251
21
-50.8
0
ARC
8
BLACK
10
141.351
20
-50.8
40
0.10033
50
360
51
540
0
ARC
8
BLACK
10
141.351
20
-55.118
40
0.10033
50
180
51
360
0
LINE
8
BLACK
10
122.555
20
-50.9003
11
141.351
21
-50.9003
0
LINE
8
BLACK
10
122.555
20
-50.6997
11
141.351
21
-50.6997
0
ARC
8
BLACK
10
141.351
20
-50.8
40
0.10033
50
270
51
450
0
ARC
8
BLACK
10
122.555
20
-50.8
40
0.10033
50
90
51
270
0
LINE
8
BLACK
10
122.655
20
-55.118
11
122.655
21
-50.8
0
LINE
8
BLACK
10
122.455
20
-55.118
11
122.455
21
-50.8
0
ARC
8
BLACK
10
122.555
20
-50.8
40
0.10033
50
360
51
540
0
ARC
8
BLACK
10
122.555
20
-55.118
40
0.10033
50
180
51
360
0
LINE
8
BLACK
10
126.592
20
-67.945
11
126.592
21
-61.214
0
LINE
8
BLACK
10
126.392
20
-67.945
11
126.392
21
-61.214
0
ARC
8
BLACK
10
126.492
20
-61.214
40
0.10033
50
360
51
540
0
ARC
8
BLACK
10
126.492
20
-67.945
40
0.10033
50
180
51
360
0
LINE
8
BLACK
10
129.386
20
-68.072
11
129.386
21
-61.214
0
LINE
8
BLACK
10
129.186
20
-68.072
11
129.186
21
-61.214
0
ARC
8
BLACK
10
129.286
20
-61.214
40
0.10033
50
360
51
540
0
ARC
8
BLACK
10
129.286
20
-68.072
40
0.10033
50
180
51
360
0
LINE
8
BLACK
10
127.989
20
-65.532
11
127.989
21
-61.214
0
LINE
8
BLACK
10
127.789
20
-65.532
11
127.789
21
-61.214
0
ARC
8
BLACK
10
127.889
20
-61.214
40
0.10033
50
360
51
540
0
ARC
8
BLACK
10
127.889
20
-65.532
40
0.10033
50
180
51
360
0
LINE
8
BLACK
10
130.656
20
-65.532
11
130.656
21
-61.214
0
LINE
8
BLACK
10
130.456
20
-65.532
11
130.456
21
-61.214
0
ARC
8
BLACK
10
130.556
20
-61.214
40
0.10033
50
360
51
540
0
ARC
8
BLACK
10
130.556
20
-65.532
40
0.10033
50
180
51
360
0
LINE
8
BLACK
10
132.053
20
-68.072
11
132.053
21
-61.214
0
LINE
8
BLACK
10
131.853
20
-68.072
11
131.853
21
-61.214
0
ARC
8
BLACK
10
131.953
20
-61.214
40
0.10033
50
360
51
540
0
ARC
8
BLACK
10
131.953
20
-68.072
40
0.10033
50
180
51
360
0
LINE
8
BLACK
10
133.45
20
-65.532
11
133.45
21
-61.214
0
LINE
8
BLACK
10
133.25
20
-65.532
11
133.25
21
-61.214
0
ARC
8
BLACK
10
133.35
20
-61.214
40
0.10033
50
360
51
540
0
ARC
8
BLACK
10
133.35
20
-65.532
40
0.10033
50
180
51
360
0
LINE
8
BLACK
10
134.72
20
-68.072
11
134.72
21
-61.214
0
LINE
8
BLACK
10
134.52
20
-68.072
11
134.52
21
-61.214
0
ARC
8
BLACK
10
134.62
20
-61.214
40
0.10033
50
360
51
540
0
ARC
8
BLACK
10
134.62
20
-68.072
40
0.10033
50
180
51
360
0
LINE
8
BLACK
10
136.117
20
-65.659
11
136.117
21
-61.214
0
LINE
8
BLACK
10
135.917
20
-65.659
11
135.917
21
-61.214
0
ARC
8
BLACK
10
136.017
20
-61.214
40
0.10033
50
360
51
540
0
ARC
8
BLACK
10
136.017
20
-65.659
40
0.10033
50
180
51
360
0
LINE
8
BLACK
10
137.514
20
-68.072
11
137.514
21
-61.214
0
LINE
8
BLACK
10
137.314
20
-68.072
11
137.314
21
-61.214
0
ARC
8
BLACK
10
137.414
20
-61.214
40
0.10033
50
360
51
540
0
ARC
8
BLACK
10
137.414
20
-68.072
40
0.10033
50
180
51
360
0
LINE
8
BLACK
10
141.451
20
-61.214
11
141.451
21
-59.69
0
LINE
8
BLACK
10
141.251
20
-61.214
11
141.251
21
-59.69
0
ARC
8
BLACK
10
141.351
20
-59.69
40
0.10033
50
360
51
540
0
ARC
8
BLACK
10
141.351
20
-61.214
40
0.10033
50
180
51
360
0
LINE
8
BLACK
10
122.555
20
-61.3143
11
141.351
21
-61.3143
0
LINE
8
BLACK
10
122.555
20
-61.1137
11
141.351
21
-61.1137
0
ARC
8
BLACK
10
141.351
20
-61.214
40
0.10033
50
270
51
450
0
ARC
8
BLACK
10
122.555
20
-61.214
40
0.10033
50
90
51
270
0
LINE
8
BLACK
10
122.655
20
-61.214
11
122.655
21
-59.69
0
LINE
8
BLACK
10
122.455
20
-61.214
11
122.455
21
-59.69
0
ARC
8
BLACK
10
122.555
20
-59.69
40
0.10033
50
360
51
540
0
ARC
8
BLACK
10
122.555
20
-61.214
40
0.10033
50
180
51
360
0
LINE
8
BLACK
10
116.332
20
-59.7903
11
147.574
21
-59.7903
0
LINE
8
BLACK
10
116.332
20
-59.5897
11
147.574
21
-59.5897
0
ARC
8
BLACK
10
147.574
20
-59.69
40
0.10033
50
270
51
450
0
ARC
8
BLACK
10
116.332
20
-59.69
40
0.10033
50
90
51
270
0
LINE
8
BLACK
10
116.332
20
-55.2183
11
147.574
21
-55.2183
0
LINE
8
BLACK
10
116.332
20
-55.0177
11
147.574
21
-55.0177
0
ARC
8
BLACK
10
147.574
20
-55.118
40
0.10033
50
270
51
450
0
ARC
8
BLACK
10
116.332
20
-55.118
40
0.10033
50
90
51
270
0
LINE
8
BLACK
10
147.674
20
-70.104
11
147.674
21
-55.118
0
LINE
8
BLACK
10
147.474
20
-70.104
11
147.474
21
-55.118
0
ARC
8
BLACK
10
147.574
20
-55.118
40
0.10033
50
360
51
540
0
ARC
8
BLACK
10
147.574
20
-70.104
40
0.10033
50
180
51
360
0
LINE
8
BLACK
10
116.332
20
-70.2043
11
147.574
21
-70.2043
0
LINE
8
BLACK
10
116.332
20
-70.0037
11
147.574
21
-70.0037
0
ARC
8
BLACK
10
147.574
20
-70.104
40
0.10033
50
270
51
450
0
ARC
8
BLACK
10
116.332
20
-70.104
40
0.10033
50
90
51
270
0
LINE
8
BLACK
10
116.432
20
-70.104
11
116.432
21
-55.118
0
LINE
8
BLACK
10
116.232
20
-70.104
11
116.232
21
-55.118
0
ARC
8
BLACK
10
116.332
20
-55.118
40
0.10033
50
360
51
540
0
ARC
8
BLACK
10
116.332
20
-70.104
40
0.10033
50
180
51
360
0
LINE
8
BLACK
10
203.708
20
-96.1644
11
206.248
21
-96.1644
0
LINE
8
BLACK
10
203.708
20
-95.8596
11
206.248
21
-95.8596
0
ARC
8
BLACK
10
206.248
20
-96.012
40
0.1524
50
270
51
450
0
ARC
8
BLACK
10
203.708
20
-96.012
40
0.1524
50
90
51
270
0
LINE
8
BLACK
10
206.4
20
-121.412
11
206.4
21
-96.012
0
LINE
8
BLACK
10
206.096
20
-121.412
11
206.096
21
-96.012
0
ARC
8
BLACK
10
206.248
20
-96.012
40
0.1524
50
360
51
540
0
ARC
8
BLACK
10
206.248
20
-121.412
40
0.1524
50
180
51
360
0
LINE
8
BLACK
10
203.708
20
-121.564
11
206.248
21
-121.564
0
LINE
8
BLACK
10
203.708
20
-121.26
11
206.248
21
-121.26
0
ARC
8
BLACK
10
206.248
20
-121.412
40
0.1524
50
270
51
450
0
ARC
8
BLACK
10
203.708
20
-121.412
40
0.1524
50
90
51
270
0
LINE
8
BLACK
10
203.86
20
-121.412
11
203.86
21
-96.012
0
LINE
8
BLACK
10
203.556
20
-121.412
11
203.556
21
-96.012
0
ARC
8
BLACK
10
203.708
20
-96.012
40
0.1524
50
360
51
540
0
ARC
8
BLACK
10
203.708
20
-121.412
40
0.1524
50
180
51
360
0
LINE
8
BLACK
10
203.708
20
-98.7044
11
206.248
21
-98.7044
0
LINE
8
BLACK
10
203.708
20
-98.3996
11
206.248
21
-98.3996
0
ARC
8
BLACK
10
206.248
20
-98.552
40
0.1524
50
270
51
450
0
ARC
8
BLACK
10
203.708
20
-98.552
40
0.1524
50
90
51
270
0
CIRCLE
8
BLACK
10
204.978
20
-80.137
40
3.63894
0
CIRCLE
8
BLACK
10
204.978
20
-140.081
40
3.63894
0
CIRCLE
8
BLACK
10
105.029
20
-140.081
40
3.63894
0
CIRCLE
8
BLACK
10
105.029
20
-80.137
40
3.63894
0
LINE
8
BLACK
10
114.935
20
-77.1525
11
122.047
21
-77.1525
0
LINE
8
BLACK
10
114.935
20
-76.7715
11
122.047
21
-76.7715
0
ARC
8
BLACK
10
122.047
20
-76.962
40
0.1905
50
270
51
450
0
ARC
8
BLACK
10
114.935
20
-76.962
40
0.1905
50
90
51
270
0
LINE
8
BLACK
10
122.238
20
-78.867
11
122.238
21
-76.962
0
LINE
8
BLACK
10
121.857
20
-78.867
11
121.857
21
-76.962
0
ARC
8
BLACK
10
122.047
20
-76.962
40
0.1905
50
360
51
540
0
ARC
8
BLACK
10
122.047
20
-78.867
40
0.1905
50
180
51
360
0
LINE
8
BLACK
10
122.238
20
-78.994
11
122.238
21
-78.867
0
LINE
8
BLACK
10
121.857
20
-78.994
11
121.857
21
-78.867
0
ARC
8
BLACK
10
122.047
20
-78.867
40
0.1905
50
360
51
540
0
ARC
8
BLACK
10
122.047
20
-78.994
40
0.1905
50
180
51
360
0
LINE
8
BLACK
10
114.935
20
-79.1845
11
122.047
21
-79.1845
0
LINE
8
BLACK
10
114.935
20
-78.8035
11
122.047
21
-78.8035
0
ARC
8
BLACK
10
122.047
20
-78.994
40
0.1905
50
270
51
450
0
ARC
8
BLACK
10
114.935
20
-78.994
40
0.1905
50
90
51
270
0
LINE
8
BLACK
10
115.126
20
-78.994
11
115.126
21
-76.962
0
LINE
8
BLACK
10
114.745
20
-78.994
11
114.745
21
-76.962
0
ARC
8
BLACK
10
114.935
20
-76.962
40
0.1905
50
360
51
540
0
ARC
8
BLACK
10
114.935
20
-78.994
40
0.1905
50
180
51
360
0
LINE
8
BLACK
10
113.919
20
-85.0265
11
123.063
21
-85.0265
0
LINE
8
BLACK
10
113.919
20
-84.6455
11
123.063
21
-84.6455
0
ARC
8
BLACK
10
123.063
20
-84.836
40
0.1905
50
270
51
450
0
ARC
8
BLACK
10
113.919
20
-84.836
40
0.1905
50
90
51
270
0
LINE
8
BLACK
10
113.919
20
-71.3105
11
123.063
21
-71.3105
0
LINE
8
BLACK
10
113.919
20
-70.9295
11
123.063
21
-70.9295
0
ARC
8
BLACK
10
123.063
20
-71.12
40
0.1905
50
270
51
450
0
ARC
8
BLACK
10
113.919
20
-71.12
40
0.1905
50
90
51
270
0
LINE
8
BLACK
10
123.254
20
-71.501
11
123.254
21
-70.612
0
LINE
8
BLACK
10
122.873
20
-71.501
11
122.873
21
-70.612
0
ARC
8
BLACK
10
123.063
20
-70.612
40
0.1905
50
360
51
540
0
ARC
8
BLACK
10
123.063
20
-71.501
40
0.1905
50
180
51
360
0
LINE
8
BLACK
10
124.714
20
-73.5965
11
125.984
21
-73.5965
0
LINE
8
BLACK
10
124.714
20
-73.2155
11
125.984
21
-73.2155
0
ARC
8
BLACK
10
125.984
20
-73.406
40
0.1905
50
270
51
450
0
ARC
8
BLACK
10
124.714
20
-73.406
40
0.1905
50
90
51
270
0
LINE
8
BLACK
10
114.11
20
-71.628
11
114.11
21
-70.485
0
LINE
8
BLACK
10
113.729
20
-71.628
11
113.729
21
-70.485
0
ARC
8
BLACK
10
113.919
20
-70.485
40
0.1905
50
360
51
540
0
ARC
8
BLACK
10
113.919
20
-71.628
40
0.1905
50
180
51
360
0
LINE
8
BLACK
10
110.998
20
-73.5965
11
112.141
21
-73.5965
0
LINE
8
BLACK
10
110.998
20
-73.2155
11
112.141
21
-73.2155
0
ARC
8
BLACK
10
112.141
20
-73.406
40
0.1905
50
270
51
450
0
ARC
8
BLACK
10
110.998
20
-73.406
40
0.1905
50
90
51
270
0
LINE
8
BLACK
10
110.998
20
-82.7405
11
112.141
21
-82.7405
0
LINE
8
BLACK
10
110.998
20
-82.3595
11
112.141
21
-82.3595
0
ARC
8
BLACK
10
112.141
20
-82.55
40
0.1905
50
270
51
450
0
ARC
8
BLACK
10
110.998
20
-82.55
40
0.1905
50
90
51
270
0
LINE
8
BLACK
10
114.11
20
-85.471
11
114.11
21
-84.328
0
LINE
8
BLACK
10
113.729
20
-85.471
11
113.729
21
-84.328
0
ARC
8
BLACK
10
113.919
20
-84.328
40
0.1905
50
360
51
540
0
ARC
8
BLACK
10
113.919
20
-85.471
40
0.1905
50
180
51
360
0
LINE
8
BLACK
10
124.841
20
-82.7405
11
125.984
21
-82.7405
0
LINE
8
BLACK
10
124.841
20
-82.3595
11
125.984
21
-82.3595
0
ARC
8
BLACK
10
125.984
20
-82.55
40
0.1905
50
270
51
450
0
ARC
8
BLACK
10
124.841
20
-82.55
40
0.1905
50
90
51
270
0
LINE
8
BLACK
10
123.254
20
-85.471
11
123.254
21
-84.328
0
LINE
8
BLACK
10
122.873
20
-85.471
11
122.873
21
-84.328
0
ARC
8
BLACK
10
123.063
20
-84.328
40
0.1905
50
360
51
540
0
ARC
8
BLACK
10
123.063
20
-85.471
40
0.1905
50
180
51
360
0
ARC
8
BLACK
10
124.841
20
-84.328
40
1.778
50
90
51
180
0
ARC
8
BLACK
10
112.141
20
-84.328
40
1.778
50
0
51
90
0
ARC
8
BLACK
10
124.841
20
-71.628
40
1.78253
50
-184.1
51
-94.1
0
ARC
8
BLACK
10
112.141
20
-71.628
40
1.778
50
-90
51
0
0
LINE
8
BLACK
10
126.175
20
-85.471
11
126.175
21
-70.485
0
LINE
8
BLACK
10
125.794
20
-85.471
11
125.794
21
-70.485
0
ARC
8
BLACK
10
125.984
20
-70.485
40
0.1905
50
360
51
540
0
ARC
8
BLACK
10
125.984
20
-85.471
40
0.1905
50
180
51
360
0
LINE
8
BLACK
10
110.998
20
-70.6755
11
125.984
21
-70.6755
0
LINE
8
BLACK
10
110.998
20
-70.2945
11
125.984
21
-70.2945
0
ARC
8
BLACK
10
125.984
20
-70.485
40
0.1905
50
270
51
450
0
ARC
8
BLACK
10
110.998
20
-70.485
40
0.1905
50
90
51
270
0
LINE
8
BLACK
10
111.189
20
-85.471
11
111.189
21
-70.485
0
LINE
8
BLACK
10
110.808
20
-85.471
11
110.808
21
-70.485
0
ARC
8
BLACK
10
110.998
20
-70.485
40
0.1905
50
360
51
540
0
ARC
8
BLACK
10
110.998
20
-85.471
40
0.1905
50
180
51
360
0
LINE
8
BLACK
10
110.998
20
-85.6615
11
125.984
21
-85.6615
0
LINE
8
BLACK
10
110.998
20
-85.2805
11
125.984
21
-85.2805
0
ARC
8
BLACK
10
125.984
20
-85.471
40
0.1905
50
270
51
450
0
ARC
8
BLACK
10
110.998
20
-85.471
40
0.1905
50
90
51
270
0
LINE
8
BLACK
10
137.922
20
-77.1525
11
145.034
21
-77.1525
0
LINE
8
BLACK
10
137.922
20
-76.7715
11
145.034
21
-76.7715
0
ARC
8
BLACK
10
145.034
20
-76.962
40
0.1905
50
270
51
450
0
ARC
8
BLACK
10
137.922
20
-76.962
40
0.1905
50
90
51
270
0
LINE
8
BLACK
10
145.225
20
-78.867
11
145.225
21
-76.962
0
LINE
8
BLACK
10
144.844
20
-78.867
11
144.844
21
-76.962
0
ARC
8
BLACK
10
145.034
20
-76.962
40
0.1905
50
360
51
540
0
ARC
8
BLACK
10
145.034
20
-78.867
40
0.1905
50
180
51
360
0
LINE
8
BLACK
10
145.225
20
-78.994
11
145.225
21
-78.867
0
LINE
8
BLACK
10
144.844
20
-78.994
11
144.844
21
-78.867
0
ARC
8
BLACK
10
145.034
20
-78.867
40
0.1905
50
360
51
540
0
ARC
8
BLACK
10
145.034
20
-78.994
40
0.1905
50
180
51
360
0
LINE
8
BLACK
10
137.922
20
-79.1845
11
145.034
21
-79.1845
0
LINE
8
BLACK
10
137.922
20
-78.8035
11
145.034
21
-78.8035
0
ARC
8
BLACK
10
145.034
20
-78.994
40
0.1905
50
270
51
450
0
ARC
8
BLACK
10
137.922
20
-78.994
40
0.1905
50
90
51
270
0
LINE
8
BLACK
10
138.113
20
-78.994
11
138.113
21
-76.962
0
LINE
8
BLACK
10
137.732
20
-78.994
11
137.732
21
-76.962
0
ARC
8
BLACK
10
137.922
20
-76.962
40
0.1905
50
360
51
540
0
ARC
8
BLACK
10
137.922
20
-78.994
40
0.1905
50
180
51
360
0
LINE
8
BLACK
10
136.906
20
-85.0265
11
146.05
21
-85.0265
0
LINE
8
BLACK
10
136.906
20
-84.6455
11
146.05
21
-84.6455
0
ARC
8
BLACK
10
146.05
20
-84.836
40
0.1905
50
270
51
450
0
ARC
8
BLACK
10
136.906
20
-84.836
40
0.1905
50
90
51
270
0
LINE
8
BLACK
10
136.906
20
-71.3105
11
146.05
21
-71.3105
0
LINE
8
BLACK
10
136.906
20
-70.9295
11
146.05
21
-70.9295
0
ARC
8
BLACK
10
146.05
20
-71.12
40
0.1905
50
270
51
450
0
ARC
8
BLACK
10
136.906
20
-71.12
40
0.1905
50
90
51
270
0
LINE
8
BLACK
10
146.241
20
-71.501
11
146.241
21
-70.612
0
LINE
8
BLACK
10
145.86
20
-71.501
11
145.86
21
-70.612
0
ARC
8
BLACK
10
146.05
20
-70.612
40
0.1905
50
360
51
540
0
ARC
8
BLACK
10
146.05
20
-71.501
40
0.1905
50
180
51
360
0
LINE
8
BLACK
10
147.701
20
-73.5965
11
148.971
21
-73.5965
0
LINE
8
BLACK
10
147.701
20
-73.2155
11
148.971
21
-73.2155
0
ARC
8
BLACK
10
148.971
20
-73.406
40
0.1905
50
270
51
450
0
ARC
8
BLACK
10
147.701
20
-73.406
40
0.1905
50
90
51
270
0
LINE
8
BLACK
10
137.097
20
-71.628
11
137.097
21
-70.485
0
LINE
8
BLACK
10
136.716
20
-71.628
11
136.716
21
-70.485
0
ARC
8
BLACK
10
136.906
20
-70.485
40
0.1905
50
360
51
540
0
ARC
8
BLACK
10
136.906
20
-71.628
40
0.1905
50
180
51
360
0
LINE
8
BLACK
10
133.985
20
-73.5965
11
135.128
21
-73.5965
0
LINE
8
BLACK
10
133.985
20
-73.2155
11
135.128
21
-73.2155
0
ARC
8
BLACK
10
135.128
20
-73.406
40
0.1905
50
270
51
450
0
ARC
8
BLACK
10
133.985
20
-73.406
40
0.1905
50
90
51
270
0
LINE
8
BLACK
10
133.985
20
-82.7405
11
135.128
21
-82.7405
0
LINE
8
BLACK
10
133.985
20
-82.3595
11
135.128
21
-82.3595
0
ARC
8
BLACK
10
135.128
20
-82.55
40
0.1905
50
270
51
450
0
ARC
8
BLACK
10
133.985
20
-82.55
40
0.1905
50
90
51
270
0
LINE
8
BLACK
10
137.097
20
-85.471
11
137.097
21
-84.328
0
LINE
8
BLACK
10
136.716
20
-85.471
11
136.716
21
-84.328
0
ARC
8
BLACK
10
136.906
20
-84.328
40
0.1905
50
360
51
540
0
ARC
8
BLACK
10
136.906
20
-85.471
40
0.1905
50
180
51
360
0
LINE
8
BLACK
10
147.828
20
-82.7405
11
148.971
21
-82.7405
0
LINE
8
BLACK
10
147.828
20
-82.3595
11
148.971
21
-82.3595
0
ARC
8
BLACK
10
148.971
20
-82.55
40
0.1905
50
270
51
450
0
ARC
8
BLACK
10
147.828
20
-82.55
40
0.1905
50
90
51
270
0
LINE
8
BLACK
10
146.241
20
-85.471
11
146.241
21
-84.328
0
LINE
8
BLACK
10
145.86
20
-85.471
11
145.86
21
-84.328
0
ARC
8
BLACK
10
146.05
20
-84.328
40
0.1905
50
360
51
540
0
ARC
8
BLACK
10
146.05
20
-85.471
40
0.1905
50
180
51
360
0
ARC
8
BLACK
10
147.828
20
-84.328
40
1.778
50
90
51
180
0
ARC
8
BLACK
10
135.128
20
-84.328
40
1.778
50
0
51
90
0
ARC
8
BLACK
10
147.828
20
-71.628
40
1.78253
50
-184.1
51
-94.1
0
ARC
8
BLACK
10
135.128
20
-71.628
40
1.778
50
-90
51
0
0
LINE
8
BLACK
10
149.162
20
-85.471
11
149.162
21
-70.485
0
LINE
8
BLACK
10
148.781
20
-85.471
11
148.781
21
-70.485
0
ARC
8
BLACK
10
148.971
20
-70.485
40
0.1905
50
360
51
540
0
ARC
8
BLACK
10
148.971
20
-85.471
40
0.1905
50
180
51
360
0
LINE
8
BLACK
10
133.985
20
-70.6755
11
148.971
21
-70.6755
0
LINE
8
BLACK
10
133.985
20
-70.2945
11
148.971
21
-70.2945
0
ARC
8
BLACK
10
148.971
20
-70.485
40
0.1905
50
270
51
450
0
ARC
8
BLACK
10
133.985
20
-70.485
40
0.1905
50
90
51
270
0
LINE
8
BLACK
10
134.176
20
-85.471
11
134.176
21
-70.485
0
LINE
8
BLACK
10
133.795
20
-85.471
11
133.795
21
-70.485
0
ARC
8
BLACK
10
133.985
20
-70.485
40
0.1905
50
360
51
540
0
ARC
8
BLACK
10
133.985
20
-85.471
40
0.1905
50
180
51
360
0
LINE
8
BLACK
10
133.985
20
-85.6615
11
148.971
21
-85.6615
0
LINE
8
BLACK
10
133.985
20
-85.2805
11
148.971
21
-85.2805
0
ARC
8
BLACK
10
148.971
20
-85.471
40
0.1905
50
270
51
450
0
ARC
8
BLACK
10
133.985
20
-85.471
40
0.1905
50
90
51
270
0
LINE
8
BLACK
10
164.973
20
-77.1525
11
172.085
21
-77.1525
0
LINE
8
BLACK
10
164.973
20
-76.7715
11
172.085
21
-76.7715
0
ARC
8
BLACK
10
172.085
20
-76.962
40
0.1905
50
270
51
450
0
ARC
8
BLACK
10
164.973
20
-76.962
40
0.1905
50
90
51
270
0
LINE
8
BLACK
10
172.276
20
-78.867
11
172.276
21
-76.962
0
LINE
8
BLACK
10
171.895
20
-78.867
11
171.895
21
-76.962
0
ARC
8
BLACK
10
172.085
20
-76.962
40
0.1905
50
360
51
540
0
ARC
8
BLACK
10
172.085
20
-78.867
40
0.1905
50
180
51
360
0
LINE
8
BLACK
10
172.276
20
-78.994
11
172.276
21
-78.867
0
LINE
8
BLACK
10
171.895
20
-78.994
11
171.895
21
-78.867
0
ARC
8
BLACK
10
172.085
20
-78.867
40
0.1905
50
360
51
540
0
ARC
8
BLACK
10
172.085
20
-78.994
40
0.1905
50
180
51
360
0
LINE
8
BLACK
10
164.973
20
-79.1845
11
172.085
21
-79.1845
0
LINE
8
BLACK
10
164.973
20
-78.8035
11
172.085
21
-78.8035
0
ARC
8
BLACK
10
172.085
20
-78.994
40
0.1905
50
270
51
450
0
ARC
8
BLACK
10
164.973
20
-78.994
40
0.1905
50
90
51
270
0
LINE
8
BLACK
10
165.164
20
-78.994
11
165.164
21
-76.962
0
LINE
8
BLACK
10
164.783
20
-78.994
11
164.783
21
-76.962
0
ARC
8
BLACK
10
164.973
20
-76.962
40
0.1905
50
360
51
540
0
ARC
8
BLACK
10
164.973
20
-78.994
40
0.1905
50
180
51
360
0
LINE
8
BLACK
10
163.957
20
-85.0265
11
173.101
21
-85.0265
0
LINE
8
BLACK
10
163.957
20
-84.6455
11
173.101
21
-84.6455
0
ARC
8
BLACK
10
173.101
20
-84.836
40
0.1905
50
270
51
450
0
ARC
8
BLACK
10
163.957
20
-84.836
40
0.1905
50
90
51
270
0
LINE
8
BLACK
10
163.957
20
-71.3105
11
173.101
21
-71.3105
0
LINE
8
BLACK
10
163.957
20
-70.9295
11
173.101
21
-70.9295
0
ARC
8
BLACK
10
173.101
20
-71.12
40
0.1905
50
270
51
450
0
ARC
8
BLACK
10
163.957
20
-71.12
40
0.1905
50
90
51
270
0
LINE
8
BLACK
10
173.292
20
-71.501
11
173.292
21
-70.612
0
LINE
8
BLACK
10
172.911
20
-71.501
11
172.911
21
-70.612
0
ARC
8
BLACK
10
173.101
20
-70.612
40
0.1905
50
360
51
540
0
ARC
8
BLACK
10
173.101
20
-71.501
40
0.1905
50
180
51
360
0
LINE
8
BLACK
10
174.752
20
-73.5965
11
176.022
21
-73.5965
0
LINE
8
BLACK
10
174.752
20
-73.2155
11
176.022
21
-73.2155
0
ARC
8
BLACK
10
176.022
20
-73.406
40
0.1905
50
270
51
450
0
ARC
8
BLACK
10
174.752
20
-73.406
40
0.1905
50
90
51
270
0
LINE
8
BLACK
10
164.148
20
-71.628
11
164.148
21
-70.485
0
LINE
8
BLACK
10
163.767
20
-71.628
11
163.767
21
-70.485
0
ARC
8
BLACK
10
163.957
20
-70.485
40
0.1905
50
360
51
540
0
ARC
8
BLACK
10
163.957
20
-71.628
40
0.1905
50
180
51
360
0
LINE
8
BLACK
10
161.036
20
-73.5965
11
162.179
21
-73.5965
0
LINE
8
BLACK
10
161.036
20
-73.2155
11
162.179
21
-73.2155
0
ARC
8
BLACK
10
162.179
20
-73.406
40
0.1905
50
270
51
450
0
ARC
8
BLACK
10
161.036
20
-73.406
40
0.1905
50
90
51
270
0
LINE
8
BLACK
10
161.036
20
-82.7405
11
162.179
21
-82.7405
0
LINE
8
BLACK
10
161.036
20
-82.3595
11
162.179
21
-82.3595
0
ARC
8
BLACK
10
162.179
20
-82.55
40
0.1905
50
270
51
450
0
ARC
8
BLACK
10
161.036
20
-82.55
40
0.1905
50
90
51
270
0
LINE
8
BLACK
10
164.148
20
-85.471
11
164.148
21
-84.328
0
LINE
8
BLACK
10
163.767
20
-85.471
11
163.767
21
-84.328
0
ARC
8
BLACK
10
163.957
20
-84.328
40
0.1905
50
360
51
540
0
ARC
8
BLACK
10
163.957
20
-85.471
40
0.1905
50
180
51
360
0
LINE
8
BLACK
10
174.879
20
-82.7405
11
176.022
21
-82.7405
0
LINE
8
BLACK
10
174.879
20
-82.3595
11
176.022
21
-82.3595
0
ARC
8
BLACK
10
176.022
20
-82.55
40
0.1905
50
270
51
450
0
ARC
8
BLACK
10
174.879
20
-82.55
40
0.1905
50
90
51
270
0
LINE
8
BLACK
10
173.292
20
-85.471
11
173.292
21
-84.328
0
LINE
8
BLACK
10
172.911
20
-85.471
11
172.911
21
-84.328
0
ARC
8
BLACK
10
173.101
20
-84.328
40
0.1905
50
360
51
540
0
ARC
8
BLACK
10
173.101
20
-85.471
40
0.1905
50
180
51
360
0
ARC
8
BLACK
10
174.879
20
-84.328
40
1.778
50
90
51
180
0
ARC
8
BLACK
10
162.179
20
-84.328
40
1.778
50
0
51
90
0
ARC
8
BLACK
10
174.879
20
-71.628
40
1.78253
50
-184.1
51
-94.1
0
ARC
8
BLACK
10
162.179
20
-71.628
40
1.778
50
-90
51
0
0
LINE
8
BLACK
10
176.213
20
-85.471
11
176.213
21
-70.485
0
LINE
8
BLACK
10
175.832
20
-85.471
11
175.832
21
-70.485
0
ARC
8
BLACK
10
176.022
20
-70.485
40
0.1905
50
360
51
540
0
ARC
8
BLACK
10
176.022
20
-85.471
40
0.1905
50
180
51
360
0
LINE
8
BLACK
10
161.036
20
-70.6755
11
176.022
21
-70.6755
0
LINE
8
BLACK
10
161.036
20
-70.2945
11
176.022
21
-70.2945
0
ARC
8
BLACK
10
176.022
20
-70.485
40
0.1905
50
270
51
450
0
ARC
8
BLACK
10
161.036
20
-70.485
40
0.1905
50
90
51
270
0
LINE
8
BLACK
10
161.227
20
-85.471
11
161.227
21
-70.485
0
LINE
8
BLACK
10
160.846
20
-85.471
11
160.846
21
-70.485
0
ARC
8
BLACK
10
161.036
20
-70.485
40
0.1905
50
360
51
540
0
ARC
8
BLACK
10
161.036
20
-85.471
40
0.1905
50
180
51
360
0
LINE
8
BLACK
10
161.036
20
-85.6615
11
176.022
21
-85.6615
0
LINE
8
BLACK
10
161.036
20
-85.2805
11
176.022
21
-85.2805
0
ARC
8
BLACK
10
176.022
20
-85.471
40
0.1905
50
270
51
450
0
ARC
8
BLACK
10
161.036
20
-85.471
40
0.1905
50
90
51
270
0
LINE
8
BLACK
10
163.957
20
-104.331
11
171.069
21
-104.331
0
LINE
8
BLACK
10
163.957
20
-103.95
11
171.069
21
-103.95
0
ARC
8
BLACK
10
171.069
20
-104.14
40
0.1905
50
270
51
450
0
ARC
8
BLACK
10
163.957
20
-104.14
40
0.1905
50
90
51
270
0
LINE
8
BLACK
10
171.26
20
-106.045
11
171.26
21
-104.14
0
LINE
8
BLACK
10
170.879
20
-106.045
11
170.879
21
-104.14
0
ARC
8
BLACK
10
171.069
20
-104.14
40
0.1905
50
360
51
540
0
ARC
8
BLACK
10
171.069
20
-106.045
40
0.1905
50
180
51
360
0
LINE
8
BLACK
10
171.26
20
-106.172
11
171.26
21
-106.045
0
LINE
8
BLACK
10
170.879
20
-106.172
11
170.879
21
-106.045
0
ARC
8
BLACK
10
171.069
20
-106.045
40
0.1905
50
360
51
540
0
ARC
8
BLACK
10
171.069
20
-106.172
40
0.1905
50
180
51
360
0
LINE
8
BLACK
10
163.957
20
-106.363
11
171.069
21
-106.363
0
LINE
8
BLACK
10
163.957
20
-105.982
11
171.069
21
-105.982
0
ARC
8
BLACK
10
171.069
20
-106.172
40
0.1905
50
270
51
450
0
ARC
8
BLACK
10
163.957
20
-106.172
40
0.1905
50
90
51
270
0
LINE
8
BLACK
10
164.148
20
-106.172
11
164.148
21
-104.14
0
LINE
8
BLACK
10
163.767
20
-106.172
11
163.767
21
-104.14
0
ARC
8
BLACK
10
163.957
20
-104.14
40
0.1905
50
360
51
540
0
ARC
8
BLACK
10
163.957
20
-106.172
40
0.1905
50
180
51
360
0
LINE
8
BLACK
10
162.941
20
-112.205
11
172.085
21
-112.205
0
LINE
8
BLACK
10
162.941
20
-111.824
11
172.085
21
-111.824
0
ARC
8
BLACK
10
172.085
20
-112.014
40
0.1905
50
270
51
450
0
ARC
8
BLACK
10
162.941
20
-112.014
40
0.1905
50
90
51
270
0
LINE
8
BLACK
10
162.941
20
-98.4885
11
172.085
21
-98.4885
0
LINE
8
BLACK
10
162.941
20
-98.1075
11
172.085
21
-98.1075
0
ARC
8
BLACK
10
172.085
20
-98.298
40
0.1905
50
270
51
450
0
ARC
8
BLACK
10
162.941
20
-98.298
40
0.1905
50
90
51
270
0
LINE
8
BLACK
10
172.276
20
-98.679
11
172.276
21
-97.79
0
LINE
8
BLACK
10
171.895
20
-98.679
11
171.895
21
-97.79
0
ARC
8
BLACK
10
172.085
20
-97.79
40
0.1905
50
360
51
540
0
ARC
8
BLACK
10
172.085
20
-98.679
40
0.1905
50
180
51
360
0
LINE
8
BLACK
10
173.736
20
-100.775
11
175.006
21
-100.775
0
LINE
8
BLACK
10
173.736
20
-100.394
11
175.006
21
-100.394
0
ARC
8
BLACK
10
175.006
20
-100.584
40
0.1905
50
270
51
450
0
ARC
8
BLACK
10
173.736
20
-100.584
40
0.1905
50
90
51
270
0
LINE
8
BLACK
10
163.132
20
-98.806
11
163.132
21
-97.663
0
LINE
8
BLACK
10
162.751
20
-98.806
11
162.751
21
-97.663
0
ARC
8
BLACK
10
162.941
20
-97.663
40
0.1905
50
360
51
540
0
ARC
8
BLACK
10
162.941
20
-98.806
40
0.1905
50
180
51
360
0
LINE
8
BLACK
10
160.02
20
-100.775
11
161.163
21
-100.775
0
LINE
8
BLACK
10
160.02
20
-100.394
11
161.163
21
-100.394
0
ARC
8
BLACK
10
161.163
20
-100.584
40
0.1905
50
270
51
450
0
ARC
8
BLACK
10
160.02
20
-100.584
40
0.1905
50
90
51
270
0
LINE
8
BLACK
10
160.02
20
-109.919
11
161.163
21
-109.919
0
LINE
8
BLACK
10
160.02
20
-109.538
11
161.163
21
-109.538
0
ARC
8
BLACK
10
161.163
20
-109.728
40
0.1905
50
270
51
450
0
ARC
8
BLACK
10
160.02
20
-109.728
40
0.1905
50
90
51
270
0
LINE
8
BLACK
10
163.132
20
-112.649
11
163.132
21
-111.506
0
LINE
8
BLACK
10
162.751
20
-112.649
11
162.751
21
-111.506
0
ARC
8
BLACK
10
162.941
20
-111.506
40
0.1905
50
360
51
540
0
ARC
8
BLACK
10
162.941
20
-112.649
40
0.1905
50
180
51
360
0
LINE
8
BLACK
10
173.863
20
-109.919
11
175.006
21
-109.919
0
LINE
8
BLACK
10
173.863
20
-109.538
11
175.006
21
-109.538
0
ARC
8
BLACK
10
175.006
20
-109.728
40
0.1905
50
270
51
450
0
ARC
8
BLACK
10
173.863
20
-109.728
40
0.1905
50
90
51
270
0
LINE
8
BLACK
10
172.276
20
-112.649
11
172.276
21
-111.506
0
LINE
8
BLACK
10
171.895
20
-112.649
11
171.895
21
-111.506
0
ARC
8
BLACK
10
172.085
20
-111.506
40
0.1905
50
360
51
540
0
ARC
8
BLACK
10
172.085
20
-112.649
40
0.1905
50
180
51
360
0
ARC
8
BLACK
10
173.863
20
-111.506
40
1.778
50
90
51
180
0
ARC
8
BLACK
10
161.163
20
-111.506
40
1.778
50
0
51
90
0
ARC
8
BLACK
10
173.863
20
-98.806
40
1.78253
50
-184.1
51
-94.1
0
ARC
8
BLACK
10
161.163
20
-98.806
40
1.778
50
-90
51
0
0
LINE
8
BLACK
10
175.197
20
-112.649
11
175.197
21
-97.663
0
LINE
8
BLACK
10
174.816
20
-112.649
11
174.816
21
-97.663
0
ARC
8
BLACK
10
175.006
20
-97.663
40
0.1905
50
360
51
540
0
ARC
8
BLACK
10
175.006
20
-112.649
40
0.1905
50
180
51
360
0
LINE
8
BLACK
10
160.02
20
-97.8535
11
175.006
21
-97.8535
0
LINE
8
BLACK
10
160.02
20
-97.4725
11
175.006
21
-97.4725
0
ARC
8
BLACK
10
175.006
20
-97.663
40
0.1905
50
270
51
450
0
ARC
8
BLACK
10
160.02
20
-97.663
40
0.1905
50
90
51
270
0
LINE
8
BLACK
10
160.211
20
-112.649
11
160.211
21
-97.663
0
LINE
8
BLACK
10
159.83
20
-112.649
11
159.83
21
-97.663
0
ARC
8
BLACK
10
160.02
20
-97.663
40
0.1905
50
360
51
540
0
ARC
8
BLACK
10
160.02
20
-112.649
40
0.1905
50
180
51
360
0
LINE
8
BLACK
10
160.02
20
-112.84
11
175.006
21
-112.84
0
LINE
8
BLACK
10
160.02
20
-112.459
11
175.006
21
-112.459
0
ARC
8
BLACK
10
175.006
20
-112.649
40
0.1905
50
270
51
450
0
ARC
8
BLACK
10
160.02
20
-112.649
40
0.1905
50
90
51
270
0
LINE
8
BLACK
10
138.938
20
-104.331
11
146.05
21
-104.331
0
LINE
8
BLACK
10
138.938
20
-103.95
11
146.05
21
-103.95
0
ARC
8
BLACK
10
146.05
20
-104.14
40
0.1905
50
270
51
450
0
ARC
8
BLACK
10
138.938
20
-104.14
40
0.1905
50
90
51
270
0
LINE
8
BLACK
10
146.241
20
-106.045
11
146.241
21
-104.14
0
LINE
8
BLACK
10
145.86
20
-106.045
11
145.86
21
-104.14
0
ARC
8
BLACK
10
146.05
20
-104.14
40
0.1905
50
360
51
540
0
ARC
8
BLACK
10
146.05
20
-106.045
40
0.1905
50
180
51
360
0
LINE
8
BLACK
10
146.241
20
-106.172
11
146.241
21
-106.045
0
LINE
8
BLACK
10
145.86
20
-106.172
11
145.86
21
-106.045
0
ARC
8
BLACK
10
146.05
20
-106.045
40
0.1905
50
360
51
540
0
ARC
8
BLACK
10
146.05
20
-106.172
40
0.1905
50
180
51
360
0
LINE
8
BLACK
10
138.938
20
-106.363
11
146.05
21
-106.363
0
LINE
8
BLACK
10
138.938
20
-105.982
11
146.05
21
-105.982
0
ARC
8
BLACK
10
146.05
20
-106.172
40
0.1905
50
270
51
450
0
ARC
8
BLACK
10
138.938
20
-106.172
40
0.1905
50
90
51
270
0
LINE
8
BLACK
10
139.129
20
-106.172
11
139.129
21
-104.14
0
LINE
8
BLACK
10
138.748
20
-106.172
11
138.748
21
-104.14
0
ARC
8
BLACK
10
138.938
20
-104.14
40
0.1905
50
360
51
540
0
ARC
8
BLACK
10
138.938
20
-106.172
40
0.1905
50
180
51
360
0
LINE
8
BLACK
10
137.922
20
-112.205
11
147.066
21
-112.205
0
LINE
8
BLACK
10
137.922
20
-111.824
11
147.066
21
-111.824
0
ARC
8
BLACK
10
147.066
20
-112.014
40
0.1905
50
270
51
450
0
ARC
8
BLACK
10
137.922
20
-112.014
40
0.1905
50
90
51
270
0
LINE
8
BLACK
10
137.922
20
-98.4885
11
147.066
21
-98.4885
0
LINE
8
BLACK
10
137.922
20
-98.1075
11
147.066
21
-98.1075
0
ARC
8
BLACK
10
147.066
20
-98.298
40
0.1905
50
270
51
450
0
ARC
8
BLACK
10
137.922
20
-98.298
40
0.1905
50
90
51
270
0
LINE
8
BLACK
10
147.257
20
-98.679
11
147.257
21
-97.79
0
LINE
8
BLACK
10
146.876
20
-98.679
11
146.876
21
-97.79
0
ARC
8
BLACK
10
147.066
20
-97.79
40
0.1905
50
360
51
540
0
ARC
8
BLACK
10
147.066
20
-98.679
40
0.1905
50
180
51
360
0
LINE
8
BLACK
10
148.717
20
-100.775
11
149.987
21
-100.775
0
LINE
8
BLACK
10
148.717
20
-100.394
11
149.987
21
-100.394
0
ARC
8
BLACK
10
149.987
20
-100.584
40
0.1905
50
270
51
450
0
ARC
8
BLACK
10
148.717
20
-100.584
40
0.1905
50
90
51
270
0
LINE
8
BLACK
10
138.113
20
-98.806
11
138.113
21
-97.663
0
LINE
8
BLACK
10
137.732
20
-98.806
11
137.732
21
-97.663
0
ARC
8
BLACK
10
137.922
20
-97.663
40
0.1905
50
360
51
540
0
ARC
8
BLACK
10
137.922
20
-98.806
40
0.1905
50
180
51
360
0
LINE
8
BLACK
10
135.001
20
-100.775
11
136.144
21
-100.775
0
LINE
8
BLACK
10
135.001
20
-100.394
11
136.144
21
-100.394
0
ARC
8
BLACK
10
136.144
20
-100.584
40
0.1905
50
270
51
450
0
ARC
8
BLACK
10
135.001
20
-100.584
40
0.1905
50
90
51
270
0
LINE
8
BLACK
10
135.001
20
-109.919
11
136.144
21
-109.919
0
LINE
8
BLACK
10
135.001
20
-109.538
11
136.144
21
-109.538
0
ARC
8
BLACK
10
136.144
20
-109.728
40
0.1905
50
270
51
450
0
ARC
8
BLACK
10
135.001
20
-109.728
40
0.1905
50
90
51
270
0
LINE
8
BLACK
10
138.113
20
-112.649
11
138.113
21
-111.506
0
LINE
8
BLACK
10
137.732
20
-112.649
11
137.732
21
-111.506
0
ARC
8
BLACK
10
137.922
20
-111.506
40
0.1905
50
360
51
540
0
ARC
8
BLACK
10
137.922
20
-112.649
40
0.1905
50
180
51
360
0
LINE
8
BLACK
10
148.844
20
-109.919
11
149.987
21
-109.919
0
LINE
8
BLACK
10
148.844
20
-109.538
11
149.987
21
-109.538
0
ARC
8
BLACK
10
149.987
20
-109.728
40
0.1905
50
270
51
450
0
ARC
8
BLACK
10
148.844
20
-109.728
40
0.1905
50
90
51
270
0
LINE
8
BLACK
10
147.257
20
-112.649
11
147.257
21
-111.506
0
LINE
8
BLACK
10
146.876
20
-112.649
11
146.876
21
-111.506
0
ARC
8
BLACK
10
147.066
20
-111.506
40
0.1905
50
360
51
540
0
ARC
8
BLACK
10
147.066
20
-112.649
40
0.1905
50
180
51
360
0
ARC
8
BLACK
10
148.844
20
-111.506
40
1.778
50
90
51
180
0
ARC
8
BLACK
10
136.144
20
-111.506
40
1.778
50
0
51
90
0
ARC
8
BLACK
10
148.844
20
-98.806
40
1.78253
50
-184.1
51
-94.1
0
ARC
8
BLACK
10
136.144
20
-98.806
40
1.778
50
-90
51
0
0
LINE
8
BLACK
10
150.178
20
-112.649
11
150.178
21
-97.663
0
LINE
8
BLACK
10
149.797
20
-112.649
11
149.797
21
-97.663
0
ARC
8
BLACK
10
149.987
20
-97.663
40
0.1905
50
360
51
540
0
ARC
8
BLACK
10
149.987
20
-112.649
40
0.1905
50
180
51
360
0
LINE
8
BLACK
10
135.001
20
-97.8535
11
149.987
21
-97.8535
0
LINE
8
BLACK
10
135.001
20
-97.4725
11
149.987
21
-97.4725
0
ARC
8
BLACK
10
149.987
20
-97.663
40
0.1905
50
270
51
450
0
ARC
8
BLACK
10
135.001
20
-97.663
40
0.1905
50
90
51
270
0
LINE
8
BLACK
10
135.192
20
-112.649
11
135.192
21
-97.663
0
LINE
8
BLACK
10
134.811
20
-112.649
11
134.811
21
-97.663
0
ARC
8
BLACK
10
135.001
20
-97.663
40
0.1905
50
360
51
540
0
ARC
8
BLACK
10
135.001
20
-112.649
40
0.1905
50
180
51
360
0
LINE
8
BLACK
10
135.001
20
-112.84
11
149.987
21
-112.84
0
LINE
8
BLACK
10
135.001
20
-112.459
11
149.987
21
-112.459
0
ARC
8
BLACK
10
149.987
20
-112.649
40
0.1905
50
270
51
450
0
ARC
8
BLACK
10
135.001
20
-112.649
40
0.1905
50
90
51
270
0
LINE
8
BLACK
10
113.919
20
-104.331
11
121.031
21
-104.331
0
LINE
8
BLACK
10
113.919
20
-103.95
11
121.031
21
-103.95
0
ARC
8
BLACK
10
121.031
20
-104.14
40
0.1905
50
270
51
450
0
ARC
8
BLACK
10
113.919
20
-104.14
40
0.1905
50
90
51
270
0
LINE
8
BLACK
10
121.222
20
-106.045
11
121.222
21
-104.14
0
LINE
8
BLACK
10
120.841
20
-106.045
11
120.841
21
-104.14
0
ARC
8
BLACK
10
121.031
20
-104.14
40
0.1905
50
360
51
540
0
ARC
8
BLACK
10
121.031
20
-106.045
40
0.1905
50
180
51
360
0
LINE
8
BLACK
10
121.222
20
-106.172
11
121.222
21
-106.045
0
LINE
8
BLACK
10
120.841
20
-106.172
11
120.841
21
-106.045
0
ARC
8
BLACK
10
121.031
20
-106.045
40
0.1905
50
360
51
540
0
ARC
8
BLACK
10
121.031
20
-106.172
40
0.1905
50
180
51
360
0
LINE
8
BLACK
10
113.919
20
-106.363
11
121.031
21
-106.363
0
LINE
8
BLACK
10
113.919
20
-105.982
11
121.031
21
-105.982
0
ARC
8
BLACK
10
121.031
20
-106.172
40
0.1905
50
270
51
450
0
ARC
8
BLACK
10
113.919
20
-106.172
40
0.1905
50
90
51
270
0
LINE
8
BLACK
10
114.11
20
-106.172
11
114.11
21
-104.14
0
LINE
8
BLACK
10
113.729
20
-106.172
11
113.729
21
-104.14
0
ARC
8
BLACK
10
113.919
20
-104.14
40
0.1905
50
360
51
540
0
ARC
8
BLACK
10
113.919
20
-106.172
40
0.1905
50
180
51
360
0
LINE
8
BLACK
10
112.903
20
-112.205
11
122.047
21
-112.205
0
LINE
8
BLACK
10
112.903
20
-111.824
11
122.047
21
-111.824
0
ARC
8
BLACK
10
122.047
20
-112.014
40
0.1905
50
270
51
450
0
ARC
8
BLACK
10
112.903
20
-112.014
40
0.1905
50
90
51
270
0
LINE
8
BLACK
10
112.903
20
-98.4885
11
122.047
21
-98.4885
0
LINE
8
BLACK
10
112.903
20
-98.1075
11
122.047
21
-98.1075
0
ARC
8
BLACK
10
122.047
20
-98.298
40
0.1905
50
270
51
450
0
ARC
8
BLACK
10
112.903
20
-98.298
40
0.1905
50
90
51
270
0
LINE
8
BLACK
10
122.238
20
-98.679
11
122.238
21
-97.79
0
LINE
8
BLACK
10
121.857
20
-98.679
11
121.857
21
-97.79
0
ARC
8
BLACK
10
122.047
20
-97.79
40
0.1905
50
360
51
540
0
ARC
8
BLACK
10
122.047
20
-98.679
40
0.1905
50
180
51
360
0
LINE
8
BLACK
10
123.698
20
-100.775
11
124.968
21
-100.775
0
LINE
8
BLACK
10
123.698
20
-100.394
11
124.968
21
-100.394
0
ARC
8
BLACK
10
124.968
20
-100.584
40
0.1905
50
270
51
450
0
ARC
8
BLACK
10
123.698
20
-100.584
40
0.1905
50
90
51
270
0
LINE
8
BLACK
10
113.094
20
-98.806
11
113.094
21
-97.663
0
LINE
8
BLACK
10
112.713
20
-98.806
11
112.713
21
-97.663
0
ARC
8
BLACK
10
112.903
20
-97.663
40
0.1905
50
360
51
540
0
ARC
8
BLACK
10
112.903
20
-98.806
40
0.1905
50
180
51
360
0
LINE
8
BLACK
10
109.982
20
-100.775
11
111.125
21
-100.775
0
LINE
8
BLACK
10
109.982
20
-100.394
11
111.125
21
-100.394
0
ARC
8
BLACK
10
111.125
20
-100.584
40
0.1905
50
270
51
450
0
ARC
8
BLACK
10
109.982
20
-100.584
40
0.1905
50
90
51
270
0
LINE
8
BLACK
10
109.982
20
-109.919
11
111.125
21
-109.919
0
LINE
8
BLACK
10
109.982
20
-109.538
11
111.125
21
-109.538
0
ARC
8
BLACK
10
111.125
20
-109.728
40
0.1905
50
270
51
450
0
ARC
8
BLACK
10
109.982
20
-109.728
40
0.1905
50
90
51
270
0
LINE
8
BLACK
10
113.094
20
-112.649
11
113.094
21
-111.506
0
LINE
8
BLACK
10
112.713
20
-112.649
11
112.713
21
-111.506
0
ARC
8
BLACK
10
112.903
20
-111.506
40
0.1905
50
360
51
540
0
ARC
8
BLACK
10
112.903
20
-112.649
40
0.1905
50
180
51
360
0
LINE
8
BLACK
10
123.825
20
-109.919
11
124.968
21
-109.919
0
LINE
8
BLACK
10
123.825
20
-109.538
11
124.968
21
-109.538
0
ARC
8
BLACK
10
124.968
20
-109.728
40
0.1905
50
270
51
450
0
ARC
8
BLACK
10
123.825
20
-109.728
40
0.1905
50
90
51
270
0
LINE
8
BLACK
10
122.238
20
-112.649
11
122.238
21
-111.506
0
LINE
8
BLACK
10
121.857
20
-112.649
11
121.857
21
-111.506
0
ARC
8
BLACK
10
122.047
20
-111.506
40
0.1905
50
360
51
540
0
ARC
8
BLACK
10
122.047
20
-112.649
40
0.1905
50
180
51
360
0
ARC
8
BLACK
10
123.825
20
-111.506
40
1.778
50
90
51
180
0
ARC
8
BLACK
10
111.125
20
-111.506
40
1.778
50
0
51
90
0
ARC
8
BLACK
10
123.825
20
-98.806
40
1.78253
50
-184.1
51
-94.1
0
ARC
8
BLACK
10
111.125
20
-98.806
40
1.778
50
-90
51
0
0
LINE
8
BLACK
10
125.159
20
-112.649
11
125.159
21
-97.663
0
LINE
8
BLACK
10
124.778
20
-112.649
11
124.778
21
-97.663
0
ARC
8
BLACK
10
124.968
20
-97.663
40
0.1905
50
360
51
540
0
ARC
8
BLACK
10
124.968
20
-112.649
40
0.1905
50
180
51
360
0
LINE
8
BLACK
10
109.982
20
-97.8535
11
124.968
21
-97.8535
0
LINE
8
BLACK
10
109.982
20
-97.4725
11
124.968
21
-97.4725
0
ARC
8
BLACK
10
124.968
20
-97.663
40
0.1905
50
270
51
450
0
ARC
8
BLACK
10
109.982
20
-97.663
40
0.1905
50
90
51
270
0
LINE
8
BLACK
10
110.173
20
-112.649
11
110.173
21
-97.663
0
LINE
8
BLACK
10
109.792
20
-112.649
11
109.792
21
-97.663
0
ARC
8
BLACK
10
109.982
20
-97.663
40
0.1905
50
360
51
540
0
ARC
8
BLACK
10
109.982
20
-112.649
40
0.1905
50
180
51
360
0
LINE
8
BLACK
10
109.982
20
-112.84
11
124.968
21
-112.84
0
LINE
8
BLACK
10
109.982
20
-112.459
11
124.968
21
-112.459
0
ARC
8
BLACK
10
124.968
20
-112.649
40
0.1905
50
270
51
450
0
ARC
8
BLACK
10
109.982
20
-112.649
40
0.1905
50
90
51
270
0
LINE
8
BLACK
10
113.919
20
-122.746
11
121.031
21
-122.746
0
LINE
8
BLACK
10
113.919
20
-122.365
11
121.031
21
-122.365
0
ARC
8
BLACK
10
121.031
20
-122.555
40
0.1905
50
270
51
450
0
ARC
8
BLACK
10
113.919
20
-122.555
40
0.1905
50
90
51
270
0
LINE
8
BLACK
10
121.222
20
-124.46
11
121.222
21
-122.555
0
LINE
8
BLACK
10
120.841
20
-124.46
11
120.841
21
-122.555
0
ARC
8
BLACK
10
121.031
20
-122.555
40
0.1905
50
360
51
540
0
ARC
8
BLACK
10
121.031
20
-124.46
40
0.1905
50
180
51
360
0
LINE
8
BLACK
10
121.222
20
-124.587
11
121.222
21
-124.46
0
LINE
8
BLACK
10
120.841
20
-124.587
11
120.841
21
-124.46
0
ARC
8
BLACK
10
121.031
20
-124.46
40
0.1905
50
360
51
540
0
ARC
8
BLACK
10
121.031
20
-124.587
40
0.1905
50
180
51
360
0
LINE
8
BLACK
10
113.919
20
-124.778
11
121.031
21
-124.778
0
LINE
8
BLACK
10
113.919
20
-124.397
11
121.031
21
-124.397
0
ARC
8
BLACK
10
121.031
20
-124.587
40
0.1905
50
270
51
450
0
ARC
8
BLACK
10
113.919
20
-124.587
40
0.1905
50
90
51
270
0
LINE
8
BLACK
10
114.11
20
-124.587
11
114.11
21
-122.555
0
LINE
8
BLACK
10
113.729
20
-124.587
11
113.729
21
-122.555
0
ARC
8
BLACK
10
113.919
20
-122.555
40
0.1905
50
360
51
540
0
ARC
8
BLACK
10
113.919
20
-124.587
40
0.1905
50
180
51
360
0
LINE
8
BLACK
10
112.903
20
-130.62
11
122.047
21
-130.62
0
LINE
8
BLACK
10
112.903
20
-130.239
11
122.047
21
-130.239
0
ARC
8
BLACK
10
122.047
20
-130.429
40
0.1905
50
270
51
450
0
ARC
8
BLACK
10
112.903
20
-130.429
40
0.1905
50
90
51
270
0
LINE
8
BLACK
10
112.903
20
-116.904
11
122.047
21
-116.904
0
LINE
8
BLACK
10
112.903
20
-116.523
11
122.047
21
-116.523
0
ARC
8
BLACK
10
122.047
20
-116.713
40
0.1905
50
270
51
450
0
ARC
8
BLACK
10
112.903
20
-116.713
40
0.1905
50
90
51
270
0
LINE
8
BLACK
10
122.238
20
-117.094
11
122.238
21
-116.205
0
LINE
8
BLACK
10
121.857
20
-117.094
11
121.857
21
-116.205
0
ARC
8
BLACK
10
122.047
20
-116.205
40
0.1905
50
360
51
540
0
ARC
8
BLACK
10
122.047
20
-117.094
40
0.1905
50
180
51
360
0
LINE
8
BLACK
10
123.698
20
-119.19
11
124.968
21
-119.19
0
LINE
8
BLACK
10
123.698
20
-118.809
11
124.968
21
-118.809
0
ARC
8
BLACK
10
124.968
20
-118.999
40
0.1905
50
270
51
450
0
ARC
8
BLACK
10
123.698
20
-118.999
40
0.1905
50
90
51
270
0
LINE
8
BLACK
10
113.094
20
-117.221
11
113.094
21
-116.078
0
LINE
8
BLACK
10
112.713
20
-117.221
11
112.713
21
-116.078
0
ARC
8
BLACK
10
112.903
20
-116.078
40
0.1905
50
360
51
540
0
ARC
8
BLACK
10
112.903
20
-117.221
40
0.1905
50
180
51
360
0
LINE
8
BLACK
10
109.982
20
-119.19
11
111.125
21
-119.19
0
LINE
8
BLACK
10
109.982
20
-118.809
11
111.125
21
-118.809
0
ARC
8
BLACK
10
111.125
20
-118.999
40
0.1905
50
270
51
450
0
ARC
8
BLACK
10
109.982
20
-118.999
40
0.1905
50
90
51
270
0
LINE
8
BLACK
10
109.982
20
-128.334
11
111.125
21
-128.334
0
LINE
8
BLACK
10
109.982
20
-127.953
11
111.125
21
-127.953
0
ARC
8
BLACK
10
111.125
20
-128.143
40
0.1905
50
270
51
450
0
ARC
8
BLACK
10
109.982
20
-128.143
40
0.1905
50
90
51
270
0
LINE
8
BLACK
10
113.094
20
-131.064
11
113.094
21
-129.921
0
LINE
8
BLACK
10
112.713
20
-131.064
11
112.713
21
-129.921
0
ARC
8
BLACK
10
112.903
20
-129.921
40
0.1905
50
360
51
540
0
ARC
8
BLACK
10
112.903
20
-131.064
40
0.1905
50
180
51
360
0
LINE
8
BLACK
10
123.825
20
-128.334
11
124.968
21
-128.334
0
LINE
8
BLACK
10
123.825
20
-127.953
11
124.968
21
-127.953
0
ARC
8
BLACK
10
124.968
20
-128.143
40
0.1905
50
270
51
450
0
ARC
8
BLACK
10
123.825
20
-128.143
40
0.1905
50
90
51
270
0
LINE
8
BLACK
10
122.238
20
-131.064
11
122.238
21
-129.921
0
LINE
8
BLACK
10
121.857
20
-131.064
11
121.857
21
-129.921
0
ARC
8
BLACK
10
122.047
20
-129.921
40
0.1905
50
360
51
540
0
ARC
8
BLACK
10
122.047
20
-131.064
40
0.1905
50
180
51
360
0
ARC
8
BLACK
10
123.825
20
-129.921
40
1.778
50
90
51
180
0
ARC
8
BLACK
10
111.125
20
-129.921
40
1.778
50
0
51
90
0
ARC
8
BLACK
10
123.825
20
-117.221
40
1.78253
50
-184.1
51
-94.1
0
ARC
8
BLACK
10
111.125
20
-117.221
40
1.778
50
-90
51
0
0
LINE
8
BLACK
10
125.159
20
-131.064
11
125.159
21
-116.078
0
LINE
8
BLACK
10
124.778
20
-131.064
11
124.778
21
-116.078
0
ARC
8
BLACK
10
124.968
20
-116.078
40
0.1905
50
360
51
540
0
ARC
8
BLACK
10
124.968
20
-131.064
40
0.1905
50
180
51
360
0
LINE
8
BLACK
10
109.982
20
-116.269
11
124.968
21
-116.269
0
LINE
8
BLACK
10
109.982
20
-115.888
11
124.968
21
-115.888
0
ARC
8
BLACK
10
124.968
20
-116.078
40
0.1905
50
270
51
450
0
ARC
8
BLACK
10
109.982
20
-116.078
40
0.1905
50
90
51
270
0
LINE
8
BLACK
10
110.173
20
-131.064
11
110.173
21
-116.078
0
LINE
8
BLACK
10
109.792
20
-131.064
11
109.792
21
-116.078
0
ARC
8
BLACK
10
109.982
20
-116.078
40
0.1905
50
360
51
540
0
ARC
8
BLACK
10
109.982
20
-131.064
40
0.1905
50
180
51
360
0
LINE
8
BLACK
10
109.982
20
-131.255
11
124.968
21
-131.255
0
LINE
8
BLACK
10
109.982
20
-130.874
11
124.968
21
-130.874
0
ARC
8
BLACK
10
124.968
20
-131.064
40
0.1905
50
270
51
450
0
ARC
8
BLACK
10
109.982
20
-131.064
40
0.1905
50
90
51
270
0
LINE
8
BLACK
10
138.938
20
-122.746
11
146.05
21
-122.746
0
LINE
8
BLACK
10
138.938
20
-122.365
11
146.05
21
-122.365
0
ARC
8
BLACK
10
146.05
20
-122.555
40
0.1905
50
270
51
450
0
ARC
8
BLACK
10
138.938
20
-122.555
40
0.1905
50
90
51
270
0
LINE
8
BLACK
10
146.241
20
-124.46
11
146.241
21
-122.555
0
LINE
8
BLACK
10
145.86
20
-124.46
11
145.86
21
-122.555
0
ARC
8
BLACK
10
146.05
20
-122.555
40
0.1905
50
360
51
540
0
ARC
8
BLACK
10
146.05
20
-124.46
40
0.1905
50
180
51
360
0
LINE
8
BLACK
10
146.241
20
-124.587
11
146.241
21
-124.46
0
LINE
8
BLACK
10
145.86
20
-124.587
11
145.86
21
-124.46
0
ARC
8
BLACK
10
146.05
20
-124.46
40
0.1905
50
360
51
540
0
ARC
8
BLACK
10
146.05
20
-124.587
40
0.1905
50
180
51
360
0
LINE
8
BLACK
10
138.938
20
-124.778
11
146.05
21
-124.778
0
LINE
8
BLACK
10
138.938
20
-124.397
11
146.05
21
-124.397
0
ARC
8
BLACK
10
146.05
20
-124.587
40
0.1905
50
270
51
450
0
ARC
8
BLACK
10
138.938
20
-124.587
40
0.1905
50
90
51
270
0
LINE
8
BLACK
10
139.129
20
-124.587
11
139.129
21
-122.555
0
LINE
8
BLACK
10
138.748
20
-124.587
11
138.748
21
-122.555
0
ARC
8
BLACK
10
138.938
20
-122.555
40
0.1905
50
360
51
540
0
ARC
8
BLACK
10
138.938
20
-124.587
40
0.1905
50
180
51
360
0
LINE
8
BLACK
10
137.922
20
-130.62
11
147.066
21
-130.62
0
LINE
8
BLACK
10
137.922
20
-130.239
11
147.066
21
-130.239
0
ARC
8
BLACK
10
147.066
20
-130.429
40
0.1905
50
270
51
450
0
ARC
8
BLACK
10
137.922
20
-130.429
40
0.1905
50
90
51
270
0
LINE
8
BLACK
10
137.922
20
-116.904
11
147.066
21
-116.904
0
LINE
8
BLACK
10
137.922
20
-116.523
11
147.066
21
-116.523
0
ARC
8
BLACK
10
147.066
20
-116.713
40
0.1905
50
270
51
450
0
ARC
8
BLACK
10
137.922
20
-116.713
40
0.1905
50
90
51
270
0
LINE
8
BLACK
10
147.257
20
-117.094
11
147.257
21
-116.205
0
LINE
8
BLACK
10
146.876
20
-117.094
11
146.876
21
-116.205
0
ARC
8
BLACK
10
147.066
20
-116.205
40
0.1905
50
360
51
540
0
ARC
8
BLACK
10
147.066
20
-117.094
40
0.1905
50
180
51
360
0
LINE
8
BLACK
10
148.717
20
-119.19
11
149.987
21
-119.19
0
LINE
8
BLACK
10
148.717
20
-118.809
11
149.987
21
-118.809
0
ARC
8
BLACK
10
149.987
20
-118.999
40
0.1905
50
270
51
450
0
ARC
8
BLACK
10
148.717
20
-118.999
40
0.1905
50
90
51
270
0
LINE
8
BLACK
10
138.113
20
-117.221
11
138.113
21
-116.078
0
LINE
8
BLACK
10
137.732
20
-117.221
11
137.732
21
-116.078
0
ARC
8
BLACK
10
137.922
20
-116.078
40
0.1905
50
360
51
540
0
ARC
8
BLACK
10
137.922
20
-117.221
40
0.1905
50
180
51
360
0
LINE
8
BLACK
10
135.001
20
-119.19
11
136.144
21
-119.19
0
LINE
8
BLACK
10
135.001
20
-118.809
11
136.144
21
-118.809
0
ARC
8
BLACK
10
136.144
20
-118.999
40
0.1905
50
270
51
450
0
ARC
8
BLACK
10
135.001
20
-118.999
40
0.1905
50
90
51
270
0
LINE
8
BLACK
10
135.001
20
-128.334
11
136.144
21
-128.334
0
LINE
8
BLACK
10
135.001
20
-127.953
11
136.144
21
-127.953
0
ARC
8
BLACK
10
136.144
20
-128.143
40
0.1905
50
270
51
450
0
ARC
8
BLACK
10
135.001
20
-128.143
40
0.1905
50
90
51
270
0
LINE
8
BLACK
10
138.113
20
-131.064
11
138.113
21
-129.921
0
LINE
8
BLACK
10
137.732
20
-131.064
11
137.732
21
-129.921
0
ARC
8
BLACK
10
137.922
20
-129.921
40
0.1905
50
360
51
540
0
ARC
8
BLACK
10
137.922
20
-131.064
40
0.1905
50
180
51
360
0
LINE
8
BLACK
10
148.844
20
-128.334
11
149.987
21
-128.334
0
LINE
8
BLACK
10
148.844
20
-127.953
11
149.987
21
-127.953
0
ARC
8
BLACK
10
149.987
20
-128.143
40
0.1905
50
270
51
450
0
ARC
8
BLACK
10
148.844
20
-128.143
40
0.1905
50
90
51
270
0
LINE
8
BLACK
10
147.257
20
-131.064
11
147.257
21
-129.921
0
LINE
8
BLACK
10
146.876
20
-131.064
11
146.876
21
-129.921
0
ARC
8
BLACK
10
147.066
20
-129.921
40
0.1905
50
360
51
540
0
ARC
8
BLACK
10
147.066
20
-131.064
40
0.1905
50
180
51
360
0
ARC
8
BLACK
10
148.844
20
-129.921
40
1.778
50
90
51
180
0
ARC
8
BLACK
10
136.144
20
-129.921
40
1.778
50
0
51
90
0
ARC
8
BLACK
10
148.844
20
-117.221
40
1.78253
50
-184.1
51
-94.1
0
ARC
8
BLACK
10
136.144
20
-117.221
40
1.778
50
-90
51
0
0
LINE
8
BLACK
10
150.178
20
-131.064
11
150.178
21
-116.078
0
LINE
8
BLACK
10
149.797
20
-131.064
11
149.797
21
-116.078
0
ARC
8
BLACK
10
149.987
20
-116.078
40
0.1905
50
360
51
540
0
ARC
8
BLACK
10
149.987
20
-131.064
40
0.1905
50
180
51
360
0
LINE
8
BLACK
10
135.001
20
-116.269
11
149.987
21
-116.269
0
LINE
8
BLACK
10
135.001
20
-115.888
11
149.987
21
-115.888
0
ARC
8
BLACK
10
149.987
20
-116.078
40
0.1905
50
270
51
450
0
ARC
8
BLACK
10
135.001
20
-116.078
40
0.1905
50
90
51
270
0
LINE
8
BLACK
10
135.192
20
-131.064
11
135.192
21
-116.078
0
LINE
8
BLACK
10
134.811
20
-131.064
11
134.811
21
-116.078
0
ARC
8
BLACK
10
135.001
20
-116.078
40
0.1905
50
360
51
540
0
ARC
8
BLACK
10
135.001
20
-131.064
40
0.1905
50
180
51
360
0
LINE
8
BLACK
10
135.001
20
-131.255
11
149.987
21
-131.255
0
LINE
8
BLACK
10
135.001
20
-130.874
11
149.987
21
-130.874
0
ARC
8
BLACK
10
149.987
20
-131.064
40
0.1905
50
270
51
450
0
ARC
8
BLACK
10
135.001
20
-131.064
40
0.1905
50
90
51
270
0
LINE
8
BLACK
10
163.957
20
-122.746
11
171.069
21
-122.746
0
LINE
8
BLACK
10
163.957
20
-122.365
11
171.069
21
-122.365
0
ARC
8
BLACK
10
171.069
20
-122.555
40
0.1905
50
270
51
450
0
ARC
8
BLACK
10
163.957
20
-122.555
40
0.1905
50
90
51
270
0
LINE
8
BLACK
10
171.26
20
-124.46
11
171.26
21
-122.555
0
LINE
8
BLACK
10
170.879
20
-124.46
11
170.879
21
-122.555
0
ARC
8
BLACK
10
171.069
20
-122.555
40
0.1905
50
360
51
540
0
ARC
8
BLACK
10
171.069
20
-124.46
40
0.1905
50
180
51
360
0
LINE
8
BLACK
10
171.26
20
-124.587
11
171.26
21
-124.46
0
LINE
8
BLACK
10
170.879
20
-124.587
11
170.879
21
-124.46
0
ARC
8
BLACK
10
171.069
20
-124.46
40
0.1905
50
360
51
540
0
ARC
8
BLACK
10
171.069
20
-124.587
40
0.1905
50
180
51
360
0
LINE
8
BLACK
10
163.957
20
-124.778
11
171.069
21
-124.778
0
LINE
8
BLACK
10
163.957
20
-124.397
11
171.069
21
-124.397
0
ARC
8
BLACK
10
171.069
20
-124.587
40
0.1905
50
270
51
450
0
ARC
8
BLACK
10
163.957
20
-124.587
40
0.1905
50
90
51
270
0
LINE
8
BLACK
10
164.148
20
-124.587
11
164.148
21
-122.555
0
LINE
8
BLACK
10
163.767
20
-124.587
11
163.767
21
-122.555
0
ARC
8
BLACK
10
163.957
20
-122.555
40
0.1905
50
360
51
540
0
ARC
8
BLACK
10
163.957
20
-124.587
40
0.1905
50
180
51
360
0
LINE
8
BLACK
10
162.941
20
-130.62
11
172.085
21
-130.62
0
LINE
8
BLACK
10
162.941
20
-130.239
11
172.085
21
-130.239
0
ARC
8
BLACK
10
172.085
20
-130.429
40
0.1905
50
270
51
450
0
ARC
8
BLACK
10
162.941
20
-130.429
40
0.1905
50
90
51
270
0
LINE
8
BLACK
10
162.941
20
-116.904
11
172.085
21
-116.904
0
LINE
8
BLACK
10
162.941
20
-116.523
11
172.085
21
-116.523
0
ARC
8
BLACK
10
172.085
20
-116.713
40
0.1905
50
270
51
450
0
ARC
8
BLACK
10
162.941
20
-116.713
40
0.1905
50
90
51
270
0
LINE
8
BLACK
10
172.276
20
-117.094
11
172.276
21
-116.205
0
LINE
8
BLACK
10
171.895
20
-117.094
11
171.895
21
-116.205
0
ARC
8
BLACK
10
172.085
20
-116.205
40
0.1905
50
360
51
540
0
ARC
8
BLACK
10
172.085
20
-117.094
40
0.1905
50
180
51
360
0
LINE
8
BLACK
10
173.736
20
-119.19
11
175.006
21
-119.19
0
LINE
8
BLACK
10
173.736
20
-118.809
11
175.006
21
-118.809
0
ARC
8
BLACK
10
175.006
20
-118.999
40
0.1905
50
270
51
450
0
ARC
8
BLACK
10
173.736
20
-118.999
40
0.1905
50
90
51
270
0
LINE
8
BLACK
10
163.132
20
-117.221
11
163.132
21
-116.078
0
LINE
8
BLACK
10
162.751
20
-117.221
11
162.751
21
-116.078
0
ARC
8
BLACK
10
162.941
20
-116.078
40
0.1905
50
360
51
540
0
ARC
8
BLACK
10
162.941
20
-117.221
40
0.1905
50
180
51
360
0
LINE
8
BLACK
10
160.02
20
-119.19
11
161.163
21
-119.19
0
LINE
8
BLACK
10
160.02
20
-118.809
11
161.163
21
-118.809
0
ARC
8
BLACK
10
161.163
20
-118.999
40
0.1905
50
270
51
450
0
ARC
8
BLACK
10
160.02
20
-118.999
40
0.1905
50
90
51
270
0
LINE
8
BLACK
10
160.02
20
-128.334
11
161.163
21
-128.334
0
LINE
8
BLACK
10
160.02
20
-127.953
11
161.163
21
-127.953
0
ARC
8
BLACK
10
161.163
20
-128.143
40
0.1905
50
270
51
450
0
ARC
8
BLACK
10
160.02
20
-128.143
40
0.1905
50
90
51
270
0
LINE
8
BLACK
10
163.132
20
-131.064
11
163.132
21
-129.921
0
LINE
8
BLACK
10
162.751
20
-131.064
11
162.751
21
-129.921
0
ARC
8
BLACK
10
162.941
20
-129.921
40
0.1905
50
360
51
540
0
ARC
8
BLACK
10
162.941
20
-131.064
40
0.1905
50
180
51
360
0
LINE
8
BLACK
10
173.863
20
-128.334
11
175.006
21
-128.334
0
LINE
8
BLACK
10
173.863
20
-127.953
11
175.006
21
-127.953
0
ARC
8
BLACK
10
175.006
20
-128.143
40
0.1905
50
270
51
450
0
ARC
8
BLACK
10
173.863
20
-128.143
40
0.1905
50
90
51
270
0
LINE
8
BLACK
10
172.276
20
-131.064
11
172.276
21
-129.921
0
LINE
8
BLACK
10
171.895
20
-131.064
11
171.895
21
-129.921
0
ARC
8
BLACK
10
172.085
20
-129.921
40
0.1905
50
360
51
540
0
ARC
8
BLACK
10
172.085
20
-131.064
40
0.1905
50
180
51
360
0
ARC
8
BLACK
10
173.863
20
-129.921
40
1.778
50
90
51
180
0
ARC
8
BLACK
10
161.163
20
-129.921
40
1.778
50
0
51
90
0
ARC
8
BLACK
10
173.863
20
-117.221
40
1.78253
50
-184.1
51
-94.1
0
ARC
8
BLACK
10
161.163
20
-117.221
40
1.778
50
-90
51
0
0
LINE
8
BLACK
10
175.197
20
-131.064
11
175.197
21
-116.078
0
LINE
8
BLACK
10
174.816
20
-131.064
11
174.816
21
-116.078
0
ARC
8
BLACK
10
175.006
20
-116.078
40
0.1905
50
360
51
540
0
ARC
8
BLACK
10
175.006
20
-131.064
40
0.1905
50
180
51
360
0
LINE
8
BLACK
10
160.02
20
-116.269
11
175.006
21
-116.269
0
LINE
8
BLACK
10
160.02
20
-115.888
11
175.006
21
-115.888
0
ARC
8
BLACK
10
175.006
20
-116.078
40
0.1905
50
270
51
450
0
ARC
8
BLACK
10
160.02
20
-116.078
40
0.1905
50
90
51
270
0
LINE
8
BLACK
10
160.211
20
-131.064
11
160.211
21
-116.078
0
LINE
8
BLACK
10
159.83
20
-131.064
11
159.83
21
-116.078
0
ARC
8
BLACK
10
160.02
20
-116.078
40
0.1905
50
360
51
540
0
ARC
8
BLACK
10
160.02
20
-131.064
40
0.1905
50
180
51
360
0
LINE
8
BLACK
10
160.02
20
-131.255
11
175.006
21
-131.255
0
LINE
8
BLACK
10
160.02
20
-130.874
11
175.006
21
-130.874
0
ARC
8
BLACK
10
175.006
20
-131.064
40
0.1905
50
270
51
450
0
ARC
8
BLACK
10
160.02
20
-131.064
40
0.1905
50
90
51
270
0
LINE
8
BLACK
10
187.96
20
-77.1525
11
195.072
21
-77.1525
0
LINE
8
BLACK
10
187.96
20
-76.7715
11
195.072
21
-76.7715
0
ARC
8
BLACK
10
195.072
20
-76.962
40
0.1905
50
270
51
450
0
ARC
8
BLACK
10
187.96
20
-76.962
40
0.1905
50
90
51
270
0
LINE
8
BLACK
10
195.263
20
-78.867
11
195.263
21
-76.962
0
LINE
8
BLACK
10
194.882
20
-78.867
11
194.882
21
-76.962
0
ARC
8
BLACK
10
195.072
20
-76.962
40
0.1905
50
360
51
540
0
ARC
8
BLACK
10
195.072
20
-78.867
40
0.1905
50
180
51
360
0
LINE
8
BLACK
10
195.263
20
-78.994
11
195.263
21
-78.867
0
LINE
8
BLACK
10
194.882
20
-78.994
11
194.882
21
-78.867
0
ARC
8
BLACK
10
195.072
20
-78.867
40
0.1905
50
360
51
540
0
ARC
8
BLACK
10
195.072
20
-78.994
40
0.1905
50
180
51
360
0
LINE
8
BLACK
10
187.96
20
-79.1845
11
195.072
21
-79.1845
0
LINE
8
BLACK
10
187.96
20
-78.8035
11
195.072
21
-78.8035
0
ARC
8
BLACK
10
195.072
20
-78.994
40
0.1905
50
270
51
450
0
ARC
8
BLACK
10
187.96
20
-78.994
40
0.1905
50
90
51
270
0
LINE
8
BLACK
10
188.151
20
-78.994
11
188.151
21
-76.962
0
LINE
8
BLACK
10
187.77
20
-78.994
11
187.77
21
-76.962
0
ARC
8
BLACK
10
187.96
20
-76.962
40
0.1905
50
360
51
540
0
ARC
8
BLACK
10
187.96
20
-78.994
40
0.1905
50
180
51
360
0
LINE
8
BLACK
10
186.944
20
-85.0265
11
196.088
21
-85.0265
0
LINE
8
BLACK
10
186.944
20
-84.6455
11
196.088
21
-84.6455
0
ARC
8
BLACK
10
196.088
20
-84.836
40
0.1905
50
270
51
450
0
ARC
8
BLACK
10
186.944
20
-84.836
40
0.1905
50
90
51
270
0
LINE
8
BLACK
10
186.944
20
-71.3105
11
196.088
21
-71.3105
0
LINE
8
BLACK
10
186.944
20
-70.9295
11
196.088
21
-70.9295
0
ARC
8
BLACK
10
196.088
20
-71.12
40
0.1905
50
270
51
450
0
ARC
8
BLACK
10
186.944
20
-71.12
40
0.1905
50
90
51
270
0
LINE
8
BLACK
10
196.279
20
-71.501
11
196.279
21
-70.612
0
LINE
8
BLACK
10
195.898
20
-71.501
11
195.898
21
-70.612
0
ARC
8
BLACK
10
196.088
20
-70.612
40
0.1905
50
360
51
540
0
ARC
8
BLACK
10
196.088
20
-71.501
40
0.1905
50
180
51
360
0
LINE
8
BLACK
10
197.739
20
-73.5965
11
199.009
21
-73.5965
0
LINE
8
BLACK
10
197.739
20
-73.2155
11
199.009
21
-73.2155
0
ARC
8
BLACK
10
199.009
20
-73.406
40
0.1905
50
270
51
450
0
ARC
8
BLACK
10
197.739
20
-73.406
40
0.1905
50
90
51
270
0
LINE
8
BLACK
10
187.135
20
-71.628
11
187.135
21
-70.485
0
LINE
8
BLACK
10
186.754
20
-71.628
11
186.754
21
-70.485
0
ARC
8
BLACK
10
186.944
20
-70.485
40
0.1905
50
360
51
540
0
ARC
8
BLACK
10
186.944
20
-71.628
40
0.1905
50
180
51
360
0
LINE
8
BLACK
10
184.023
20
-73.5965
11
185.166
21
-73.5965
0
LINE
8
BLACK
10
184.023
20
-73.2155
11
185.166
21
-73.2155
0
ARC
8
BLACK
10
185.166
20
-73.406
40
0.1905
50
270
51
450
0
ARC
8
BLACK
10
184.023
20
-73.406
40
0.1905
50
90
51
270
0
LINE
8
BLACK
10
184.023
20
-82.7405
11
185.166
21
-82.7405
0
LINE
8
BLACK
10
184.023
20
-82.3595
11
185.166
21
-82.3595
0
ARC
8
BLACK
10
185.166
20
-82.55
40
0.1905
50
270
51
450
0
ARC
8
BLACK
10
184.023
20
-82.55
40
0.1905
50
90
51
270
0
LINE
8
BLACK
10
187.135
20
-85.471
11
187.135
21
-84.328
0
LINE
8
BLACK
10
186.754
20
-85.471
11
186.754
21
-84.328
0
ARC
8
BLACK
10
186.944
20
-84.328
40
0.1905
50
360
51
540
0
ARC
8
BLACK
10
186.944
20
-85.471
40
0.1905
50
180
51
360
0
LINE
8
BLACK
10
197.866
20
-82.7405
11
199.009
21
-82.7405
0
LINE
8
BLACK
10
197.866
20
-82.3595
11
199.009
21
-82.3595
0
ARC
8
BLACK
10
199.009
20
-82.55
40
0.1905
50
270
51
450
0
ARC
8
BLACK
10
197.866
20
-82.55
40
0.1905
50
90
51
270
0
LINE
8
BLACK
10
196.279
20
-85.471
11
196.279
21
-84.328
0
LINE
8
BLACK
10
195.898
20
-85.471
11
195.898
21
-84.328
0
ARC
8
BLACK
10
196.088
20
-84.328
40
0.1905
50
360
51
540
0
ARC
8
BLACK
10
196.088
20
-85.471
40
0.1905
50
180
51
360
0
ARC
8
BLACK
10
197.866
20
-84.328
40
1.778
50
90
51
180
0
ARC
8
BLACK
10
185.166
20
-84.328
40
1.778
50
0
51
90
0
ARC
8
BLACK
10
197.866
20
-71.628
40
1.78253
50
-184.1
51
-94.1
0
ARC
8
BLACK
10
185.166
20
-71.628
40
1.778
50
-90
51
0
0
LINE
8
BLACK
10
199.2
20
-85.471
11
199.2
21
-70.485
0
LINE
8
BLACK
10
198.819
20
-85.471
11
198.819
21
-70.485
0
ARC
8
BLACK
10
199.009
20
-70.485
40
0.1905
50
360
51
540
0
ARC
8
BLACK
10
199.009
20
-85.471
40
0.1905
50
180
51
360
0
LINE
8
BLACK
10
184.023
20
-70.6755
11
199.009
21
-70.6755
0
LINE
8
BLACK
10
184.023
20
-70.2945
11
199.009
21
-70.2945
0
ARC
8
BLACK
10
199.009
20
-70.485
40
0.1905
50
270
51
450
0
ARC
8
BLACK
10
184.023
20
-70.485
40
0.1905
50
90
51
270
0
LINE
8
BLACK
10
184.214
20
-85.471
11
184.214
21
-70.485
0
LINE
8
BLACK
10
183.833
20
-85.471
11
183.833
21
-70.485
0
ARC
8
BLACK
10
184.023
20
-70.485
40
0.1905
50
360
51
540
0
ARC
8
BLACK
10
184.023
20
-85.471
40
0.1905
50
180
51
360
0
LINE
8
BLACK
10
184.023
20
-85.6615
11
199.009
21
-85.6615
0
LINE
8
BLACK
10
184.023
20
-85.2805
11
199.009
21
-85.2805
0
ARC
8
BLACK
10
199.009
20
-85.471
40
0.1905
50
270
51
450
0
ARC
8
BLACK
10
184.023
20
-85.471
40
0.1905
50
90
51
270
0
LINE
8
BLACK
10
188.976
20
-104.331
11
196.088
21
-104.331
0
LINE
8
BLACK
10
188.976
20
-103.95
11
196.088
21
-103.95
0
ARC
8
BLACK
10
196.088
20
-104.14
40
0.1905
50
270
51
450
0
ARC
8
BLACK
10
188.976
20
-104.14
40
0.1905
50
90
51
270
0
LINE
8
BLACK
10
196.279
20
-106.045
11
196.279
21
-104.14
0
LINE
8
BLACK
10
195.898
20
-106.045
11
195.898
21
-104.14
0
ARC
8
BLACK
10
196.088
20
-104.14
40
0.1905
50
360
51
540
0
ARC
8
BLACK
10
196.088
20
-106.045
40
0.1905
50
180
51
360
0
LINE
8
BLACK
10
196.279
20
-106.172
11
196.279
21
-106.045
0
LINE
8
BLACK
10
195.898
20
-106.172
11
195.898
21
-106.045
0
ARC
8
BLACK
10
196.088
20
-106.045
40
0.1905
50
360
51
540
0
ARC
8
BLACK
10
196.088
20
-106.172
40
0.1905
50
180
51
360
0
LINE
8
BLACK
10
188.976
20
-106.363
11
196.088
21
-106.363
0
LINE
8
BLACK
10
188.976
20
-105.982
11
196.088
21
-105.982
0
ARC
8
BLACK
10
196.088
20
-106.172
40
0.1905
50
270
51
450
0
ARC
8
BLACK
10
188.976
20
-106.172
40
0.1905
50
90
51
270
0
LINE
8
BLACK
10
189.167
20
-106.172
11
189.167
21
-104.14
0
LINE
8
BLACK
10
188.786
20
-106.172
11
188.786
21
-104.14
0
ARC
8
BLACK
10
188.976
20
-104.14
40
0.1905
50
360
51
540
0
ARC
8
BLACK
10
188.976
20
-106.172
40
0.1905
50
180
51
360
0
LINE
8
BLACK
10
187.96
20
-112.205
11
197.104
21
-112.205
0
LINE
8
BLACK
10
187.96
20
-111.824
11
197.104
21
-111.824
0
ARC
8
BLACK
10
197.104
20
-112.014
40
0.1905
50
270
51
450
0
ARC
8
BLACK
10
187.96
20
-112.014
40
0.1905
50
90
51
270
0
LINE
8
BLACK
10
187.96
20
-98.4885
11
197.104
21
-98.4885
0
LINE
8
BLACK
10
187.96
20
-98.1075
11
197.104
21
-98.1075
0
ARC
8
BLACK
10
197.104
20
-98.298
40
0.1905
50
270
51
450
0
ARC
8
BLACK
10
187.96
20
-98.298
40
0.1905
50
90
51
270
0
LINE
8
BLACK
10
197.295
20
-98.679
11
197.295
21
-97.79
0
LINE
8
BLACK
10
196.914
20
-98.679
11
196.914
21
-97.79
0
ARC
8
BLACK
10
197.104
20
-97.79
40
0.1905
50
360
51
540
0
ARC
8
BLACK
10
197.104
20
-98.679
40
0.1905
50
180
51
360
0
LINE
8
BLACK
10
198.755
20
-100.775
11
200.025
21
-100.775
0
LINE
8
BLACK
10
198.755
20
-100.394
11
200.025
21
-100.394
0
ARC
8
BLACK
10
200.025
20
-100.584
40
0.1905
50
270
51
450
0
ARC
8
BLACK
10
198.755
20
-100.584
40
0.1905
50
90
51
270
0
LINE
8
BLACK
10
188.151
20
-98.806
11
188.151
21
-97.663
0
LINE
8
BLACK
10
187.77
20
-98.806
11
187.77
21
-97.663
0
ARC
8
BLACK
10
187.96
20
-97.663
40
0.1905
50
360
51
540
0
ARC
8
BLACK
10
187.96
20
-98.806
40
0.1905
50
180
51
360
0
LINE
8
BLACK
10
185.039
20
-100.775
11
186.182
21
-100.775
0
LINE
8
BLACK
10
185.039
20
-100.394
11
186.182
21
-100.394
0
ARC
8
BLACK
10
186.182
20
-100.584
40
0.1905
50
270
51
450
0
ARC
8
BLACK
10
185.039
20
-100.584
40
0.1905
50
90
51
270
0
LINE
8
BLACK
10
185.039
20
-109.919
11
186.182
21
-109.919
0
LINE
8
BLACK
10
185.039
20
-109.538
11
186.182
21
-109.538
0
ARC
8
BLACK
10
186.182
20
-109.728
40
0.1905
50
270
51
450
0
ARC
8
BLACK
10
185.039
20
-109.728
40
0.1905
50
90
51
270
0
LINE
8
BLACK
10
188.151
20
-112.649
11
188.151
21
-111.506
0
LINE
8
BLACK
10
187.77
20
-112.649
11
187.77
21
-111.506
0
ARC
8
BLACK
10
187.96
20
-111.506
40
0.1905
50
360
51
540
0
ARC
8
BLACK
10
187.96
20
-112.649
40
0.1905
50
180
51
360
0
LINE
8
BLACK
10
198.882
20
-109.919
11
200.025
21
-109.919
0
LINE
8
BLACK
10
198.882
20
-109.538
11
200.025
21
-109.538
0
ARC
8
BLACK
10
200.025
20
-109.728
40
0.1905
50
270
51
450
0
ARC
8
BLACK
10
198.882
20
-109.728
40
0.1905
50
90
51
270
0
LINE
8
BLACK
10
197.295
20
-112.649
11
197.295
21
-111.506
0
LINE
8
BLACK
10
196.914
20
-112.649
11
196.914
21
-111.506
0
ARC
8
BLACK
10
197.104
20
-111.506
40
0.1905
50
360
51
540
0
ARC
8
BLACK
10
197.104
20
-112.649
40
0.1905
50
180
51
360
0
ARC
8
BLACK
10
198.882
20
-111.506
40
1.778
50
90
51
180
0
ARC
8
BLACK
10
186.182
20
-111.506
40
1.778
50
0
51
90
0
ARC
8
BLACK
10
198.882
20
-98.806
40
1.78253
50
-184.1
51
-94.1
0
ARC
8
BLACK
10
186.182
20
-98.806
40
1.778
50
-90
51
0
0
LINE
8
BLACK
10
200.216
20
-112.649
11
200.216
21
-97.663
0
LINE
8
BLACK
10
199.835
20
-112.649
11
199.835
21
-97.663
0
ARC
8
BLACK
10
200.025
20
-97.663
40
0.1905
50
360
51
540
0
ARC
8
BLACK
10
200.025
20
-112.649
40
0.1905
50
180
51
360
0
LINE
8
BLACK
10
185.039
20
-97.8535
11
200.025
21
-97.8535
0
LINE
8
BLACK
10
185.039
20
-97.4725
11
200.025
21
-97.4725
0
ARC
8
BLACK
10
200.025
20
-97.663
40
0.1905
50
270
51
450
0
ARC
8
BLACK
10
185.039
20
-97.663
40
0.1905
50
90
51
270
0
LINE
8
BLACK
10
185.23
20
-112.649
11
185.23
21
-97.663
0
LINE
8
BLACK
10
184.849
20
-112.649
11
184.849
21
-97.663
0
ARC
8
BLACK
10
185.039
20
-97.663
40
0.1905
50
360
51
540
0
ARC
8
BLACK
10
185.039
20
-112.649
40
0.1905
50
180
51
360
0
LINE
8
BLACK
10
185.039
20
-112.84
11
200.025
21
-112.84
0
LINE
8
BLACK
10
185.039
20
-112.459
11
200.025
21
-112.459
0
ARC
8
BLACK
10
200.025
20
-112.649
40
0.1905
50
270
51
450
0
ARC
8
BLACK
10
185.039
20
-112.649
40
0.1905
50
90
51
270
0
LINE
8
BLACK
10
188.976
20
-122.746
11
196.088
21
-122.746
0
LINE
8
BLACK
10
188.976
20
-122.365
11
196.088
21
-122.365
0
ARC
8
BLACK
10
196.088
20
-122.555
40
0.1905
50
270
51
450
0
ARC
8
BLACK
10
188.976
20
-122.555
40
0.1905
50
90
51
270
0
LINE
8
BLACK
10
196.279
20
-124.46
11
196.279
21
-122.555
0
LINE
8
BLACK
10
195.898
20
-124.46
11
195.898
21
-122.555
0
ARC
8
BLACK
10
196.088
20
-122.555
40
0.1905
50
360
51
540
0
ARC
8
BLACK
10
196.088
20
-124.46
40
0.1905
50
180
51
360
0
LINE
8
BLACK
10
196.279
20
-124.587
11
196.279
21
-124.46
0
LINE
8
BLACK
10
195.898
20
-124.587
11
195.898
21
-124.46
0
ARC
8
BLACK
10
196.088
20
-124.46
40
0.1905
50
360
51
540
0
ARC
8
BLACK
10
196.088
20
-124.587
40
0.1905
50
180
51
360
0
LINE
8
BLACK
10
188.976
20
-124.778
11
196.088
21
-124.778
0
LINE
8
BLACK
10
188.976
20
-124.397
11
196.088
21
-124.397
0
ARC
8
BLACK
10
196.088
20
-124.587
40
0.1905
50
270
51
450
0
ARC
8
BLACK
10
188.976
20
-124.587
40
0.1905
50
90
51
270
0
LINE
8
BLACK
10
189.167
20
-124.587
11
189.167
21
-122.555
0
LINE
8
BLACK
10
188.786
20
-124.587
11
188.786
21
-122.555
0
ARC
8
BLACK
10
188.976
20
-122.555
40
0.1905
50
360
51
540
0
ARC
8
BLACK
10
188.976
20
-124.587
40
0.1905
50
180
51
360
0
LINE
8
BLACK
10
187.96
20
-130.62
11
197.104
21
-130.62
0
LINE
8
BLACK
10
187.96
20
-130.239
11
197.104
21
-130.239
0
ARC
8
BLACK
10
197.104
20
-130.429
40
0.1905
50
270
51
450
0
ARC
8
BLACK
10
187.96
20
-130.429
40
0.1905
50
90
51
270
0
LINE
8
BLACK
10
187.96
20
-116.904
11
197.104
21
-116.904
0
LINE
8
BLACK
10
187.96
20
-116.523
11
197.104
21
-116.523
0
ARC
8
BLACK
10
197.104
20
-116.713
40
0.1905
50
270
51
450
0
ARC
8
BLACK
10
187.96
20
-116.713
40
0.1905
50
90
51
270
0
LINE
8
BLACK
10
197.295
20
-117.094
11
197.295
21
-116.205
0
LINE
8
BLACK
10
196.914
20
-117.094
11
196.914
21
-116.205
0
ARC
8
BLACK
10
197.104
20
-116.205
40
0.1905
50
360
51
540
0
ARC
8
BLACK
10
197.104
20
-117.094
40
0.1905
50
180
51
360
0
LINE
8
BLACK
10
198.755
20
-119.19
11
200.025
21
-119.19
0
LINE
8
BLACK
10
198.755
20
-118.809
11
200.025
21
-118.809
0
ARC
8
BLACK
10
200.025
20
-118.999
40
0.1905
50
270
51
450
0
ARC
8
BLACK
10
198.755
20
-118.999
40
0.1905
50
90
51
270
0
LINE
8
BLACK
10
188.151
20
-117.221
11
188.151
21
-116.078
0
LINE
8
BLACK
10
187.77
20
-117.221
11
187.77
21
-116.078
0
ARC
8
BLACK
10
187.96
20
-116.078
40
0.1905
50
360
51
540
0
ARC
8
BLACK
10
187.96
20
-117.221
40
0.1905
50
180
51
360
0
LINE
8
BLACK
10
185.039
20
-119.19
11
186.182
21
-119.19
0
LINE
8
BLACK
10
185.039
20
-118.809
11
186.182
21
-118.809
0
ARC
8
BLACK
10
186.182
20
-118.999
40
0.1905
50
270
51
450
0
ARC
8
BLACK
10
185.039
20
-118.999
40
0.1905
50
90
51
270
0
LINE
8
BLACK
10
185.039
20
-128.334
11
186.182
21
-128.334
0
LINE
8
BLACK
10
185.039
20
-127.953
11
186.182
21
-127.953
0
ARC
8
BLACK
10
186.182
20
-128.143
40
0.1905
50
270
51
450
0
ARC
8
BLACK
10
185.039
20
-128.143
40
0.1905
50
90
51
270
0
LINE
8
BLACK
10
188.151
20
-131.064
11
188.151
21
-129.921
0
LINE
8
BLACK
10
187.77
20
-131.064
11
187.77
21
-129.921
0
ARC
8
BLACK
10
187.96
20
-129.921
40
0.1905
50
360
51
540
0
ARC
8
BLACK
10
187.96
20
-131.064
40
0.1905
50
180
51
360
0
LINE
8
BLACK
10
198.882
20
-128.334
11
200.025
21
-128.334
0
LINE
8
BLACK
10
198.882
20
-127.953
11
200.025
21
-127.953
0
ARC
8
BLACK
10
200.025
20
-128.143
40
0.1905
50
270
51
450
0
ARC
8
BLACK
10
198.882
20
-128.143
40
0.1905
50
90
51
270
0
LINE
8
BLACK
10
197.295
20
-131.064
11
197.295
21
-129.921
0
LINE
8
BLACK
10
196.914
20
-131.064
11
196.914
21
-129.921
0
ARC
8
BLACK
10
197.104
20
-129.921
40
0.1905
50
360
51
540
0
ARC
8
BLACK
10
197.104
20
-131.064
40
0.1905
50
180
51
360
0
ARC
8
BLACK
10
198.882
20
-129.921
40
1.778
50
90
51
180
0
ARC
8
BLACK
10
186.182
20
-129.921
40
1.778
50
0
51
90
0
ARC
8
BLACK
10
198.882
20
-117.221
40
1.78253
50
-184.1
51
-94.1
0
ARC
8
BLACK
10
186.182
20
-117.221
40
1.778
50
-90
51
0
0
LINE
8
BLACK
10
200.216
20
-131.064
11
200.216
21
-116.078
0
LINE
8
BLACK
10
199.835
20
-131.064
11
199.835
21
-116.078
0
ARC
8
BLACK
10
200.025
20
-116.078
40
0.1905
50
360
51
540
0
ARC
8
BLACK
10
200.025
20
-131.064
40
0.1905
50
180
51
360
0
LINE
8
BLACK
10
185.039
20
-116.269
11
200.025
21
-116.269
0
LINE
8
BLACK
10
185.039
20
-115.888
11
200.025
21
-115.888
0
ARC
8
BLACK
10
200.025
20
-116.078
40
0.1905
50
270
51
450
0
ARC
8
BLACK
10
185.039
20
-116.078
40
0.1905
50
90
51
270
0
LINE
8
BLACK
10
185.23
20
-131.064
11
185.23
21
-116.078
0
LINE
8
BLACK
10
184.849
20
-131.064
11
184.849
21
-116.078
0
ARC
8
BLACK
10
185.039
20
-116.078
40
0.1905
50
360
51
540
0
ARC
8
BLACK
10
185.039
20
-131.064
40
0.1905
50
180
51
360
0
LINE
8
BLACK
10
185.039
20
-131.255
11
200.025
21
-131.255
0
LINE
8
BLACK
10
185.039
20
-130.874
11
200.025
21
-130.874
0
ARC
8
BLACK
10
200.025
20
-131.064
40
0.1905
50
270
51
450
0
ARC
8
BLACK
10
185.039
20
-131.064
40
0.1905
50
90
51
270
0
LINE
8
BLACK
10
188.976
20
-141.288
11
196.088
21
-141.288
0
LINE
8
BLACK
10
188.976
20
-140.907
11
196.088
21
-140.907
0
ARC
8
BLACK
10
196.088
20
-141.097
40
0.1905
50
270
51
450
0
ARC
8
BLACK
10
188.976
20
-141.097
40
0.1905
50
90
51
270
0
LINE
8
BLACK
10
196.279
20
-143.002
11
196.279
21
-141.097
0
LINE
8
BLACK
10
195.898
20
-143.002
11
195.898
21
-141.097
0
ARC
8
BLACK
10
196.088
20
-141.097
40
0.1905
50
360
51
540
0
ARC
8
BLACK
10
196.088
20
-143.002
40
0.1905
50
180
51
360
0
LINE
8
BLACK
10
196.279
20
-143.129
11
196.279
21
-143.002
0
LINE
8
BLACK
10
195.898
20
-143.129
11
195.898
21
-143.002
0
ARC
8
BLACK
10
196.088
20
-143.002
40
0.1905
50
360
51
540
0
ARC
8
BLACK
10
196.088
20
-143.129
40
0.1905
50
180
51
360
0
LINE
8
BLACK
10
188.976
20
-143.32
11
196.088
21
-143.32
0
LINE
8
BLACK
10
188.976
20
-142.939
11
196.088
21
-142.939
0
ARC
8
BLACK
10
196.088
20
-143.129
40
0.1905
50
270
51
450
0
ARC
8
BLACK
10
188.976
20
-143.129
40
0.1905
50
90
51
270
0
LINE
8
BLACK
10
189.167
20
-143.129
11
189.167
21
-141.097
0
LINE
8
BLACK
10
188.786
20
-143.129
11
188.786
21
-141.097
0
ARC
8
BLACK
10
188.976
20
-141.097
40
0.1905
50
360
51
540
0
ARC
8
BLACK
10
188.976
20
-143.129
40
0.1905
50
180
51
360
0
LINE
8
BLACK
10
187.96
20
-149.162
11
197.104
21
-149.162
0
LINE
8
BLACK
10
187.96
20
-148.781
11
197.104
21
-148.781
0
ARC
8
BLACK
10
197.104
20
-148.971
40
0.1905
50
270
51
450
0
ARC
8
BLACK
10
187.96
20
-148.971
40
0.1905
50
90
51
270
0
LINE
8
BLACK
10
187.96
20
-135.446
11
197.104
21
-135.446
0
LINE
8
BLACK
10
187.96
20
-135.065
11
197.104
21
-135.065
0
ARC
8
BLACK
10
197.104
20
-135.255
40
0.1905
50
270
51
450
0
ARC
8
BLACK
10
187.96
20
-135.255
40
0.1905
50
90
51
270
0
LINE
8
BLACK
10
197.295
20
-135.636
11
197.295
21
-134.747
0
LINE
8
BLACK
10
196.914
20
-135.636
11
196.914
21
-134.747
0
ARC
8
BLACK
10
197.104
20
-134.747
40
0.1905
50
360
51
540
0
ARC
8
BLACK
10
197.104
20
-135.636
40
0.1905
50
180
51
360
0
LINE
8
BLACK
10
198.755
20
-137.732
11
200.025
21
-137.732
0
LINE
8
BLACK
10
198.755
20
-137.351
11
200.025
21
-137.351
0
ARC
8
BLACK
10
200.025
20
-137.541
40
0.1905
50
270
51
450
0
ARC
8
BLACK
10
198.755
20
-137.541
40
0.1905
50
90
51
270
0
LINE
8
BLACK
10
188.151
20
-135.763
11
188.151
21
-134.62
0
LINE
8
BLACK
10
187.77
20
-135.763
11
187.77
21
-134.62
0
ARC
8
BLACK
10
187.96
20
-134.62
40
0.1905
50
360
51
540
0
ARC
8
BLACK
10
187.96
20
-135.763
40
0.1905
50
180
51
360
0
LINE
8
BLACK
10
185.039
20
-137.732
11
186.182
21
-137.732
0
LINE
8
BLACK
10
185.039
20
-137.351
11
186.182
21
-137.351
0
ARC
8
BLACK
10
186.182
20
-137.541
40
0.1905
50
270
51
450
0
ARC
8
BLACK
10
185.039
20
-137.541
40
0.1905
50
90
51
270
0
LINE
8
BLACK
10
185.039
20
-146.876
11
186.182
21
-146.876
0
LINE
8
BLACK
10
185.039
20
-146.495
11
186.182
21
-146.495
0
ARC
8
BLACK
10
186.182
20
-146.685
40
0.1905
50
270
51
450
0
ARC
8
BLACK
10
185.039
20
-146.685
40
0.1905
50
90
51
270
0
LINE
8
BLACK
10
188.151
20
-149.606
11
188.151
21
-148.463
0
LINE
8
BLACK
10
187.77
20
-149.606
11
187.77
21
-148.463
0
ARC
8
BLACK
10
187.96
20
-148.463
40
0.1905
50
360
51
540
0
ARC
8
BLACK
10
187.96
20
-149.606
40
0.1905
50
180
51
360
0
LINE
8
BLACK
10
198.882
20
-146.876
11
200.025
21
-146.876
0
LINE
8
BLACK
10
198.882
20
-146.495
11
200.025
21
-146.495
0
ARC
8
BLACK
10
200.025
20
-146.685
40
0.1905
50
270
51
450
0
ARC
8
BLACK
10
198.882
20
-146.685
40
0.1905
50
90
51
270
0
LINE
8
BLACK
10
197.295
20
-149.606
11
197.295
21
-148.463
0
LINE
8
BLACK
10
196.914
20
-149.606
11
196.914
21
-148.463
0
ARC
8
BLACK
10
197.104
20
-148.463
40
0.1905
50
360
51
540
0
ARC
8
BLACK
10
197.104
20
-149.606
40
0.1905
50
180
51
360
0
ARC
8
BLACK
10
198.882
20
-148.463
40
1.778
50
90
51
180
0
ARC
8
BLACK
10
186.182
20
-148.463
40
1.778
50
0
51
90
0
ARC
8
BLACK
10
198.882
20
-135.763
40
1.78253
50
-184.1
51
-94.1
0
ARC
8
BLACK
10
186.182
20
-135.763
40
1.778
50
-90
51
0
0
LINE
8
BLACK
10
200.216
20
-149.606
11
200.216
21
-134.62
0
LINE
8
BLACK
10
199.835
20
-149.606
11
199.835
21
-134.62
0
ARC
8
BLACK
10
200.025
20
-134.62
40
0.1905
50
360
51
540
0
ARC
8
BLACK
10
200.025
20
-149.606
40
0.1905
50
180
51
360
0
LINE
8
BLACK
10
185.039
20
-134.811
11
200.025
21
-134.811
0
LINE
8
BLACK
10
185.039
20
-134.43
11
200.025
21
-134.43
0
ARC
8
BLACK
10
200.025
20
-134.62
40
0.1905
50
270
51
450
0
ARC
8
BLACK
10
185.039
20
-134.62
40
0.1905
50
90
51
270
0
LINE
8
BLACK
10
185.23
20
-149.606
11
185.23
21
-134.62
0
LINE
8
BLACK
10
184.849
20
-149.606
11
184.849
21
-134.62
0
ARC
8
BLACK
10
185.039
20
-134.62
40
0.1905
50
360
51
540
0
ARC
8
BLACK
10
185.039
20
-149.606
40
0.1905
50
180
51
360
0
LINE
8
BLACK
10
185.039
20
-149.797
11
200.025
21
-149.797
0
LINE
8
BLACK
10
185.039
20
-149.416
11
200.025
21
-149.416
0
ARC
8
BLACK
10
200.025
20
-149.606
40
0.1905
50
270
51
450
0
ARC
8
BLACK
10
185.039
20
-149.606
40
0.1905
50
90
51
270
0
LINE
8
BLACK
10
163.957
20
-141.288
11
171.069
21
-141.288
0
LINE
8
BLACK
10
163.957
20
-140.907
11
171.069
21
-140.907
0
ARC
8
BLACK
10
171.069
20
-141.097
40
0.1905
50
270
51
450
0
ARC
8
BLACK
10
163.957
20
-141.097
40
0.1905
50
90
51
270
0
LINE
8
BLACK
10
171.26
20
-143.002
11
171.26
21
-141.097
0
LINE
8
BLACK
10
170.879
20
-143.002
11
170.879
21
-141.097
0
ARC
8
BLACK
10
171.069
20
-141.097
40
0.1905
50
360
51
540
0
ARC
8
BLACK
10
171.069
20
-143.002
40
0.1905
50
180
51
360
0
LINE
8
BLACK
10
171.26
20
-143.129
11
171.26
21
-143.002
0
LINE
8
BLACK
10
170.879
20
-143.129
11
170.879
21
-143.002
0
ARC
8
BLACK
10
171.069
20
-143.002
40
0.1905
50
360
51
540
0
ARC
8
BLACK
10
171.069
20
-143.129
40
0.1905
50
180
51
360
0
LINE
8
BLACK
10
163.957
20
-143.32
11
171.069
21
-143.32
0
LINE
8
BLACK
10
163.957
20
-142.939
11
171.069
21
-142.939
0
ARC
8
BLACK
10
171.069
20
-143.129
40
0.1905
50
270
51
450
0
ARC
8
BLACK
10
163.957
20
-143.129
40
0.1905
50
90
51
270
0
LINE
8
BLACK
10
164.148
20
-143.129
11
164.148
21
-141.097
0
LINE
8
BLACK
10
163.767
20
-143.129
11
163.767
21
-141.097
0
ARC
8
BLACK
10
163.957
20
-141.097
40
0.1905
50
360
51
540
0
ARC
8
BLACK
10
163.957
20
-143.129
40
0.1905
50
180
51
360
0
LINE
8
BLACK
10
162.941
20
-149.162
11
172.085
21
-149.162
0
LINE
8
BLACK
10
162.941
20
-148.781
11
172.085
21
-148.781
0
ARC
8
BLACK
10
172.085
20
-148.971
40
0.1905
50
270
51
450
0
ARC
8
BLACK
10
162.941
20
-148.971
40
0.1905
50
90
51
270
0
LINE
8
BLACK
10
162.941
20
-135.446
11
172.085
21
-135.446
0
LINE
8
BLACK
10
162.941
20
-135.065
11
172.085
21
-135.065
0
ARC
8
BLACK
10
172.085
20
-135.255
40
0.1905
50
270
51
450
0
ARC
8
BLACK
10
162.941
20
-135.255
40
0.1905
50
90
51
270
0
LINE
8
BLACK
10
172.276
20
-135.636
11
172.276
21
-134.747
0
LINE
8
BLACK
10
171.895
20
-135.636
11
171.895
21
-134.747
0
ARC
8
BLACK
10
172.085
20
-134.747
40
0.1905
50
360
51
540
0
ARC
8
BLACK
10
172.085
20
-135.636
40
0.1905
50
180
51
360
0
LINE
8
BLACK
10
173.736
20
-137.732
11
175.006
21
-137.732
0
LINE
8
BLACK
10
173.736
20
-137.351
11
175.006
21
-137.351
0
ARC
8
BLACK
10
175.006
20
-137.541
40
0.1905
50
270
51
450
0
ARC
8
BLACK
10
173.736
20
-137.541
40
0.1905
50
90
51
270
0
LINE
8
BLACK
10
163.132
20
-135.763
11
163.132
21
-134.62
0
LINE
8
BLACK
10
162.751
20
-135.763
11
162.751
21
-134.62
0
ARC
8
BLACK
10
162.941
20
-134.62
40
0.1905
50
360
51
540
0
ARC
8
BLACK
10
162.941
20
-135.763
40
0.1905
50
180
51
360
0
LINE
8
BLACK
10
160.02
20
-137.732
11
161.163
21
-137.732
0
LINE
8
BLACK
10
160.02
20
-137.351
11
161.163
21
-137.351
0
ARC
8
BLACK
10
161.163
20
-137.541
40
0.1905
50
270
51
450
0
ARC
8
BLACK
10
160.02
20
-137.541
40
0.1905
50
90
51
270
0
LINE
8
BLACK
10
160.02
20
-146.876
11
161.163
21
-146.876
0
LINE
8
BLACK
10
160.02
20
-146.495
11
161.163
21
-146.495
0
ARC
8
BLACK
10
161.163
20
-146.685
40
0.1905
50
270
51
450
0
ARC
8
BLACK
10
160.02
20
-146.685
40
0.1905
50
90
51
270
0
LINE
8
BLACK
10
163.132
20
-149.606
11
163.132
21
-148.463
0
LINE
8
BLACK
10
162.751
20
-149.606
11
162.751
21
-148.463
0
ARC
8
BLACK
10
162.941
20
-148.463
40
0.1905
50
360
51
540
0
ARC
8
BLACK
10
162.941
20
-149.606
40
0.1905
50
180
51
360
0
LINE
8
BLACK
10
173.863
20
-146.876
11
175.006
21
-146.876
0
LINE
8
BLACK
10
173.863
20
-146.495
11
175.006
21
-146.495
0
ARC
8
BLACK
10
175.006
20
-146.685
40
0.1905
50
270
51
450
0
ARC
8
BLACK
10
173.863
20
-146.685
40
0.1905
50
90
51
270
0
LINE
8
BLACK
10
172.276
20
-149.606
11
172.276
21
-148.463
0
LINE
8
BLACK
10
171.895
20
-149.606
11
171.895
21
-148.463
0
ARC
8
BLACK
10
172.085
20
-148.463
40
0.1905
50
360
51
540
0
ARC
8
BLACK
10
172.085
20
-149.606
40
0.1905
50
180
51
360
0
ARC
8
BLACK
10
173.863
20
-148.463
40
1.778
50
90
51
180
0
ARC
8
BLACK
10
161.163
20
-148.463
40
1.778
50
0
51
90
0
ARC
8
BLACK
10
173.863
20
-135.763
40
1.78253
50
-184.1
51
-94.1
0
ARC
8
BLACK
10
161.163
20
-135.763
40
1.778
50
-90
51
0
0
LINE
8
BLACK
10
175.197
20
-149.606
11
175.197
21
-134.62
0
LINE
8
BLACK
10
174.816
20
-149.606
11
174.816
21
-134.62
0
ARC
8
BLACK
10
175.006
20
-134.62
40
0.1905
50
360
51
540
0
ARC
8
BLACK
10
175.006
20
-149.606
40
0.1905
50
180
51
360
0
LINE
8
BLACK
10
160.02
20
-134.811
11
175.006
21
-134.811
0
LINE
8
BLACK
10
160.02
20
-134.43
11
175.006
21
-134.43
0
ARC
8
BLACK
10
175.006
20
-134.62
40
0.1905
50
270
51
450
0
ARC
8
BLACK
10
160.02
20
-134.62
40
0.1905
50
90
51
270
0
LINE
8
BLACK
10
160.211
20
-149.606
11
160.211
21
-134.62
0
LINE
8
BLACK
10
159.83
20
-149.606
11
159.83
21
-134.62
0
ARC
8
BLACK
10
160.02
20
-134.62
40
0.1905
50
360
51
540
0
ARC
8
BLACK
10
160.02
20
-149.606
40
0.1905
50
180
51
360
0
LINE
8
BLACK
10
160.02
20
-149.797
11
175.006
21
-149.797
0
LINE
8
BLACK
10
160.02
20
-149.416
11
175.006
21
-149.416
0
ARC
8
BLACK
10
175.006
20
-149.606
40
0.1905
50
270
51
450
0
ARC
8
BLACK
10
160.02
20
-149.606
40
0.1905
50
90
51
270
0
LINE
8
BLACK
10
138.938
20
-141.288
11
146.05
21
-141.288
0
LINE
8
BLACK
10
138.938
20
-140.907
11
146.05
21
-140.907
0
ARC
8
BLACK
10
146.05
20
-141.097
40
0.1905
50
270
51
450
0
ARC
8
BLACK
10
138.938
20
-141.097
40
0.1905
50
90
51
270
0
LINE
8
BLACK
10
146.241
20
-143.002
11
146.241
21
-141.097
0
LINE
8
BLACK
10
145.86
20
-143.002
11
145.86
21
-141.097
0
ARC
8
BLACK
10
146.05
20
-141.097
40
0.1905
50
360
51
540
0
ARC
8
BLACK
10
146.05
20
-143.002
40
0.1905
50
180
51
360
0
LINE
8
BLACK
10
146.241
20
-143.129
11
146.241
21
-143.002
0
LINE
8
BLACK
10
145.86
20
-143.129
11
145.86
21
-143.002
0
ARC
8
BLACK
10
146.05
20
-143.002
40
0.1905
50
360
51
540
0
ARC
8
BLACK
10
146.05
20
-143.129
40
0.1905
50
180
51
360
0
LINE
8
BLACK
10
138.938
20
-143.32
11
146.05
21
-143.32
0
LINE
8
BLACK
10
138.938
20
-142.939
11
146.05
21
-142.939
0
ARC
8
BLACK
10
146.05
20
-143.129
40
0.1905
50
270
51
450
0
ARC
8
BLACK
10
138.938
20
-143.129
40
0.1905
50
90
51
270
0
LINE
8
BLACK
10
139.129
20
-143.129
11
139.129
21
-141.097
0
LINE
8
BLACK
10
138.748
20
-143.129
11
138.748
21
-141.097
0
ARC
8
BLACK
10
138.938
20
-141.097
40
0.1905
50
360
51
540
0
ARC
8
BLACK
10
138.938
20
-143.129
40
0.1905
50
180
51
360
0
LINE
8
BLACK
10
137.922
20
-149.162
11
147.066
21
-149.162
0
LINE
8
BLACK
10
137.922
20
-148.781
11
147.066
21
-148.781
0
ARC
8
BLACK
10
147.066
20
-148.971
40
0.1905
50
270
51
450
0
ARC
8
BLACK
10
137.922
20
-148.971
40
0.1905
50
90
51
270
0
LINE
8
BLACK
10
137.922
20
-135.446
11
147.066
21
-135.446
0
LINE
8
BLACK
10
137.922
20
-135.065
11
147.066
21
-135.065
0
ARC
8
BLACK
10
147.066
20
-135.255
40
0.1905
50
270
51
450
0
ARC
8
BLACK
10
137.922
20
-135.255
40
0.1905
50
90
51
270
0
LINE
8
BLACK
10
147.257
20
-135.636
11
147.257
21
-134.747
0
LINE
8
BLACK
10
146.876
20
-135.636
11
146.876
21
-134.747
0
ARC
8
BLACK
10
147.066
20
-134.747
40
0.1905
50
360
51
540
0
ARC
8
BLACK
10
147.066
20
-135.636
40
0.1905
50
180
51
360
0
LINE
8
BLACK
10
148.717
20
-137.732
11
149.987
21
-137.732
0
LINE
8
BLACK
10
148.717
20
-137.351
11
149.987
21
-137.351
0
ARC
8
BLACK
10
149.987
20
-137.541
40
0.1905
50
270
51
450
0
ARC
8
BLACK
10
148.717
20
-137.541
40
0.1905
50
90
51
270
0
LINE
8
BLACK
10
138.113
20
-135.763
11
138.113
21
-134.62
0
LINE
8
BLACK
10
137.732
20
-135.763
11
137.732
21
-134.62
0
ARC
8
BLACK
10
137.922
20
-134.62
40
0.1905
50
360
51
540
0
ARC
8
BLACK
10
137.922
20
-135.763
40
0.1905
50
180
51
360
0
LINE
8
BLACK
10
135.001
20
-137.732
11
136.144
21
-137.732
0
LINE
8
BLACK
10
135.001
20
-137.351
11
136.144
21
-137.351
0
ARC
8
BLACK
10
136.144
20
-137.541
40
0.1905
50
270
51
450
0
ARC
8
BLACK
10
135.001
20
-137.541
40
0.1905
50
90
51
270
0
LINE
8
BLACK
10
135.001
20
-146.876
11
136.144
21
-146.876
0
LINE
8
BLACK
10
135.001
20
-146.495
11
136.144
21
-146.495
0
ARC
8
BLACK
10
136.144
20
-146.685
40
0.1905
50
270
51
450
0
ARC
8
BLACK
10
135.001
20
-146.685
40
0.1905
50
90
51
270
0
LINE
8
BLACK
10
138.113
20
-149.606
11
138.113
21
-148.463
0
LINE
8
BLACK
10
137.732
20
-149.606
11
137.732
21
-148.463
0
ARC
8
BLACK
10
137.922
20
-148.463
40
0.1905
50
360
51
540
0
ARC
8
BLACK
10
137.922
20
-149.606
40
0.1905
50
180
51
360
0
LINE
8
BLACK
10
148.844
20
-146.876
11
149.987
21
-146.876
0
LINE
8
BLACK
10
148.844
20
-146.495
11
149.987
21
-146.495
0
ARC
8
BLACK
10
149.987
20
-146.685
40
0.1905
50
270
51
450
0
ARC
8
BLACK
10
148.844
20
-146.685
40
0.1905
50
90
51
270
0
LINE
8
BLACK
10
147.257
20
-149.606
11
147.257
21
-148.463
0
LINE
8
BLACK
10
146.876
20
-149.606
11
146.876
21
-148.463
0
ARC
8
BLACK
10
147.066
20
-148.463
40
0.1905
50
360
51
540
0
ARC
8
BLACK
10
147.066
20
-149.606
40
0.1905
50
180
51
360
0
ARC
8
BLACK
10
148.844
20
-148.463
40
1.778
50
90
51
180
0
ARC
8
BLACK
10
136.144
20
-148.463
40
1.778
50
0
51
90
0
ARC
8
BLACK
10
148.844
20
-135.763
40
1.78253
50
-184.1
51
-94.1
0
ARC
8
BLACK
10
136.144
20
-135.763
40
1.778
50
-90
51
0
0
LINE
8
BLACK
10
150.178
20
-149.606
11
150.178
21
-134.62
0
LINE
8
BLACK
10
149.797
20
-149.606
11
149.797
21
-134.62
0
ARC
8
BLACK
10
149.987
20
-134.62
40
0.1905
50
360
51
540
0
ARC
8
BLACK
10
149.987
20
-149.606
40
0.1905
50
180
51
360
0
LINE
8
BLACK
10
135.001
20
-134.811
11
149.987
21
-134.811
0
LINE
8
BLACK
10
135.001
20
-134.43
11
149.987
21
-134.43
0
ARC
8
BLACK
10
149.987
20
-134.62
40
0.1905
50
270
51
450
0
ARC
8
BLACK
10
135.001
20
-134.62
40
0.1905
50
90
51
270
0
LINE
8
BLACK
10
135.192
20
-149.606
11
135.192
21
-134.62
0
LINE
8
BLACK
10
134.811
20
-149.606
11
134.811
21
-134.62
0
ARC
8
BLACK
10
135.001
20
-134.62
40
0.1905
50
360
51
540
0
ARC
8
BLACK
10
135.001
20
-149.606
40
0.1905
50
180
51
360
0
LINE
8
BLACK
10
135.001
20
-149.797
11
149.987
21
-149.797
0
LINE
8
BLACK
10
135.001
20
-149.416
11
149.987
21
-149.416
0
ARC
8
BLACK
10
149.987
20
-149.606
40
0.1905
50
270
51
450
0
ARC
8
BLACK
10
135.001
20
-149.606
40
0.1905
50
90
51
270
0
LINE
8
BLACK
10
113.919
20
-141.288
11
121.031
21
-141.288
0
LINE
8
BLACK
10
113.919
20
-140.907
11
121.031
21
-140.907
0
ARC
8
BLACK
10
121.031
20
-141.097
40
0.1905
50
270
51
450
0
ARC
8
BLACK
10
113.919
20
-141.097
40
0.1905
50
90
51
270
0
LINE
8
BLACK
10
121.222
20
-143.002
11
121.222
21
-141.097
0
LINE
8
BLACK
10
120.841
20
-143.002
11
120.841
21
-141.097
0
ARC
8
BLACK
10
121.031
20
-141.097
40
0.1905
50
360
51
540
0
ARC
8
BLACK
10
121.031
20
-143.002
40
0.1905
50
180
51
360
0
LINE
8
BLACK
10
121.222
20
-143.129
11
121.222
21
-143.002
0
LINE
8
BLACK
10
120.841
20
-143.129
11
120.841
21
-143.002
0
ARC
8
BLACK
10
121.031
20
-143.002
40
0.1905
50
360
51
540
0
ARC
8
BLACK
10
121.031
20
-143.129
40
0.1905
50
180
51
360
0
LINE
8
BLACK
10
113.919
20
-143.32
11
121.031
21
-143.32
0
LINE
8
BLACK
10
113.919
20
-142.939
11
121.031
21
-142.939
0
ARC
8
BLACK
10
121.031
20
-143.129
40
0.1905
50
270
51
450
0
ARC
8
BLACK
10
113.919
20
-143.129
40
0.1905
50
90
51
270
0
LINE
8
BLACK
10
114.11
20
-143.129
11
114.11
21
-141.097
0
LINE
8
BLACK
10
113.729
20
-143.129
11
113.729
21
-141.097
0
ARC
8
BLACK
10
113.919
20
-141.097
40
0.1905
50
360
51
540
0
ARC
8
BLACK
10
113.919
20
-143.129
40
0.1905
50
180
51
360
0
LINE
8
BLACK
10
112.903
20
-149.162
11
122.047
21
-149.162
0
LINE
8
BLACK
10
112.903
20
-148.781
11
122.047
21
-148.781
0
ARC
8
BLACK
10
122.047
20
-148.971
40
0.1905
50
270
51
450
0
ARC
8
BLACK
10
112.903
20
-148.971
40
0.1905
50
90
51
270
0
LINE
8
BLACK
10
112.903
20
-135.446
11
122.047
21
-135.446
0
LINE
8
BLACK
10
112.903
20
-135.065
11
122.047
21
-135.065
0
ARC
8
BLACK
10
122.047
20
-135.255
40
0.1905
50
270
51
450
0
ARC
8
BLACK
10
112.903
20
-135.255
40
0.1905
50
90
51
270
0
LINE
8
BLACK
10
122.238
20
-135.636
11
122.238
21
-134.747
0
LINE
8
BLACK
10
121.857
20
-135.636
11
121.857
21
-134.747
0
ARC
8
BLACK
10
122.047
20
-134.747
40
0.1905
50
360
51
540
0
ARC
8
BLACK
10
122.047
20
-135.636
40
0.1905
50
180
51
360
0
LINE
8
BLACK
10
123.698
20
-137.732
11
124.968
21
-137.732
0
LINE
8
BLACK
10
123.698
20
-137.351
11
124.968
21
-137.351
0
ARC
8
BLACK
10
124.968
20
-137.541
40
0.1905
50
270
51
450
0
ARC
8
BLACK
10
123.698
20
-137.541
40
0.1905
50
90
51
270
0
LINE
8
BLACK
10
113.094
20
-135.763
11
113.094
21
-134.62
0
LINE
8
BLACK
10
112.713
20
-135.763
11
112.713
21
-134.62
0
ARC
8
BLACK
10
112.903
20
-134.62
40
0.1905
50
360
51
540
0
ARC
8
BLACK
10
112.903
20
-135.763
40
0.1905
50
180
51
360
0
LINE
8
BLACK
10
109.982
20
-137.732
11
111.125
21
-137.732
0
LINE
8
BLACK
10
109.982
20
-137.351
11
111.125
21
-137.351
0
ARC
8
BLACK
10
111.125
20
-137.541
40
0.1905
50
270
51
450
0
ARC
8
BLACK
10
109.982
20
-137.541
40
0.1905
50
90
51
270
0
LINE
8
BLACK
10
109.982
20
-146.876
11
111.125
21
-146.876
0
LINE
8
BLACK
10
109.982
20
-146.495
11
111.125
21
-146.495
0
ARC
8
BLACK
10
111.125
20
-146.685
40
0.1905
50
270
51
450
0
ARC
8
BLACK
10
109.982
20
-146.685
40
0.1905
50
90
51
270
0
LINE
8
BLACK
10
113.094
20
-149.606
11
113.094
21
-148.463
0
LINE
8
BLACK
10
112.713
20
-149.606
11
112.713
21
-148.463
0
ARC
8
BLACK
10
112.903
20
-148.463
40
0.1905
50
360
51
540
0
ARC
8
BLACK
10
112.903
20
-149.606
40
0.1905
50
180
51
360
0
LINE
8
BLACK
10
123.825
20
-146.876
11
124.968
21
-146.876
0
LINE
8
BLACK
10
123.825
20
-146.495
11
124.968
21
-146.495
0
ARC
8
BLACK
10
124.968
20
-146.685
40
0.1905
50
270
51
450
0
ARC
8
BLACK
10
123.825
20
-146.685
40
0.1905
50
90
51
270
0
LINE
8
BLACK
10
122.238
20
-149.606
11
122.238
21
-148.463
0
LINE
8
BLACK
10
121.857
20
-149.606
11
121.857
21
-148.463
0
ARC
8
BLACK
10
122.047
20
-148.463
40
0.1905
50
360
51
540
0
ARC
8
BLACK
10
122.047
20
-149.606
40
0.1905
50
180
51
360
0
ARC
8
BLACK
10
123.825
20
-148.463
40
1.778
50
90
51
180
0
ARC
8
BLACK
10
111.125
20
-148.463
40
1.778
50
0
51
90
0
ARC
8
BLACK
10
123.825
20
-135.763
40
1.78253
50
-184.1
51
-94.1
0
ARC
8
BLACK
10
111.125
20
-135.763
40
1.778
50
-90
51
0
0
LINE
8
BLACK
10
125.159
20
-149.606
11
125.159
21
-134.62
0
LINE
8
BLACK
10
124.778
20
-149.606
11
124.778
21
-134.62
0
ARC
8
BLACK
10
124.968
20
-134.62
40
0.1905
50
360
51
540
0
ARC
8
BLACK
10
124.968
20
-149.606
40
0.1905
50
180
51
360
0
LINE
8
BLACK
10
109.982
20
-134.811
11
124.968
21
-134.811
0
LINE
8
BLACK
10
109.982
20
-134.43
11
124.968
21
-134.43
0
ARC
8
BLACK
10
124.968
20
-134.62
40
0.1905
50
270
51
450
0
ARC
8
BLACK
10
109.982
20
-134.62
40
0.1905
50
90
51
270
0
LINE
8
BLACK
10
110.173
20
-149.606
11
110.173
21
-134.62
0
LINE
8
BLACK
10
109.792
20
-149.606
11
109.792
21
-134.62
0
ARC
8
BLACK
10
109.982
20
-134.62
40
0.1905
50
360
51
540
0
ARC
8
BLACK
10
109.982
20
-149.606
40
0.1905
50
180
51
360
0
LINE
8
BLACK
10
109.982
20
-149.797
11
124.968
21
-149.797
0
LINE
8
BLACK
10
109.982
20
-149.416
11
124.968
21
-149.416
0
ARC
8
BLACK
10
124.968
20
-149.606
40
0.1905
50
270
51
450
0
ARC
8
BLACK
10
109.982
20
-149.606
40
0.1905
50
90
51
270
0
LINE
8
BLACK
10
187.425
20
-55.118
11
187.425
21
-50.8
0
LINE
8
BLACK
10
187.225
20
-55.118
11
187.225
21
-50.8
0
ARC
8
BLACK
10
187.325
20
-50.8
40
0.10033
50
360
51
540
0
ARC
8
BLACK
10
187.325
20
-55.118
40
0.10033
50
180
51
360
0
LINE
8
BLACK
10
168.529
20
-50.9003
11
187.325
21
-50.9003
0
LINE
8
BLACK
10
168.529
20
-50.6997
11
187.325
21
-50.6997
0
ARC
8
BLACK
10
187.325
20
-50.8
40
0.10033
50
270
51
450
0
ARC
8
BLACK
10
168.529
20
-50.8
40
0.10033
50
90
51
270
0
LINE
8
BLACK
10
168.629
20
-55.118
11
168.629
21
-50.8
0
LINE
8
BLACK
10
168.429
20
-55.118
11
168.429
21
-50.8
0
ARC
8
BLACK
10
168.529
20
-50.8
40
0.10033
50
360
51
540
0
ARC
8
BLACK
10
168.529
20
-55.118
40
0.10033
50
180
51
360
0
LINE
8
BLACK
10
172.566
20
-67.945
11
172.566
21
-61.214
0
LINE
8
BLACK
10
172.366
20
-67.945
11
172.366
21
-61.214
0
ARC
8
BLACK
10
172.466
20
-61.214
40
0.10033
50
360
51
540
0
ARC
8
BLACK
10
172.466
20
-67.945
40
0.10033
50
180
51
360
0
LINE
8
BLACK
10
175.36
20
-68.072
11
175.36
21
-61.214
0
LINE
8
BLACK
10
175.16
20
-68.072
11
175.16
21
-61.214
0
ARC
8
BLACK
10
175.26
20
-61.214
40
0.10033
50
360
51
540
0
ARC
8
BLACK
10
175.26
20
-68.072
40
0.10033
50
180
51
360
0
LINE
8
BLACK
10
173.963
20
-65.532
11
173.963
21
-61.214
0
LINE
8
BLACK
10
173.763
20
-65.532
11
173.763
21
-61.214
0
ARC
8
BLACK
10
173.863
20
-61.214
40
0.10033
50
360
51
540
0
ARC
8
BLACK
10
173.863
20
-65.532
40
0.10033
50
180
51
360
0
LINE
8
BLACK
10
176.63
20
-65.532
11
176.63
21
-61.214
0
LINE
8
BLACK
10
176.43
20
-65.532
11
176.43
21
-61.214
0
ARC
8
BLACK
10
176.53
20
-61.214
40
0.10033
50
360
51
540
0
ARC
8
BLACK
10
176.53
20
-65.532
40
0.10033
50
180
51
360
0
LINE
8
BLACK
10
178.027
20
-68.072
11
178.027
21
-61.214
0
LINE
8
BLACK
10
177.827
20
-68.072
11
177.827
21
-61.214
0
ARC
8
BLACK
10
177.927
20
-61.214
40
0.10033
50
360
51
540
0
ARC
8
BLACK
10
177.927
20
-68.072
40
0.10033
50
180
51
360
0
LINE
8
BLACK
10
179.424
20
-65.532
11
179.424
21
-61.214
0
LINE
8
BLACK
10
179.224
20
-65.532
11
179.224
21
-61.214
0
ARC
8
BLACK
10
179.324
20
-61.214
40
0.10033
50
360
51
540
0
ARC
8
BLACK
10
179.324
20
-65.532
40
0.10033
50
180
51
360
0
LINE
8
BLACK
10
180.694
20
-68.072
11
180.694
21
-61.214
0
LINE
8
BLACK
10
180.494
20
-68.072
11
180.494
21
-61.214
0
ARC
8
BLACK
10
180.594
20
-61.214
40
0.10033
50
360
51
540
0
ARC
8
BLACK
10
180.594
20
-68.072
40
0.10033
50
180
51
360
0
LINE
8
BLACK
10
182.091
20
-65.659
11
182.091
21
-61.214
0
LINE
8
BLACK
10
181.891
20
-65.659
11
181.891
21
-61.214
0
ARC
8
BLACK
10
181.991
20
-61.214
40
0.10033
50
360
51
540
0
ARC
8
BLACK
10
181.991
20
-65.659
40
0.10033
50
180
51
360
0
LINE
8
BLACK
10
183.488
20
-68.072
11
183.488
21
-61.214
0
LINE
8
BLACK
10
183.288
20
-68.072
11
183.288
21
-61.214
0
ARC
8
BLACK
10
183.388
20
-61.214
40
0.10033
50
360
51
540
0
ARC
8
BLACK
10
183.388
20
-68.072
40
0.10033
50
180
51
360
0
LINE
8
BLACK
10
187.425
20
-61.214
11
187.425
21
-59.69
0
LINE
8
BLACK
10
187.225
20
-61.214
11
187.225
21
-59.69
0
ARC
8
BLACK
10
187.325
20
-59.69
40
0.10033
50
360
51
540
0
ARC
8
BLACK
10
187.325
20
-61.214
40
0.10033
50
180
51
360
0
LINE
8
BLACK
10
168.529
20
-61.3143
11
187.325
21
-61.3143
0
LINE
8
BLACK
10
168.529
20
-61.1137
11
187.325
21
-61.1137
0
ARC
8
BLACK
10
187.325
20
-61.214
40
0.10033
50
270
51
450
0
ARC
8
BLACK
10
168.529
20
-61.214
40
0.10033
50
90
51
270
0
LINE
8
BLACK
10
168.629
20
-61.214
11
168.629
21
-59.69
0
LINE
8
BLACK
10
168.429
20
-61.214
11
168.429
21
-59.69
0
ARC
8
BLACK
10
168.529
20
-59.69
40
0.10033
50
360
51
540
0
ARC
8
BLACK
10
168.529
20
-61.214
40
0.10033
50
180
51
360
0
LINE
8
BLACK
10
162.306
20
-59.7903
11
193.548
21
-59.7903
0
LINE
8
BLACK
10
162.306
20
-59.5897
11
193.548
21
-59.5897
0
ARC
8
BLACK
10
193.548
20
-59.69
40
0.10033
50
270
51
450
0
ARC
8
BLACK
10
162.306
20
-59.69
40
0.10033
50
90
51
270
0
LINE
8
BLACK
10
162.306
20
-55.2183
11
193.548
21
-55.2183
0
LINE
8
BLACK
10
162.306
20
-55.0177
11
193.548
21
-55.0177
0
ARC
8
BLACK
10
193.548
20
-55.118
40
0.10033
50
270
51
450
0
ARC
8
BLACK
10
162.306
20
-55.118
40
0.10033
50
90
51
270
0
LINE
8
BLACK
10
193.648
20
-70.104
11
193.648
21
-55.118
0
LINE
8
BLACK
10
193.448
20
-70.104
11
193.448
21
-55.118
0
ARC
8
BLACK
10
193.548
20
-55.118
40
0.10033
50
360
51
540
0
ARC
8
BLACK
10
193.548
20
-70.104
40
0.10033
50
180
51
360
0
LINE
8
BLACK
10
162.306
20
-70.2043
11
193.548
21
-70.2043
0
LINE
8
BLACK
10
162.306
20
-70.0037
11
193.548
21
-70.0037
0
ARC
8
BLACK
10
193.548
20
-70.104
40
0.10033
50
270
51
450
0
ARC
8
BLACK
10
162.306
20
-70.104
40
0.10033
50
90
51
270
0
LINE
8
BLACK
10
162.406
20
-70.104
11
162.406
21
-55.118
0
LINE
8
BLACK
10
162.206
20
-70.104
11
162.206
21
-55.118
0
ARC
8
BLACK
10
162.306
20
-55.118
40
0.10033
50
360
51
540
0
ARC
8
BLACK
10
162.306
20
-70.104
40
0.10033
50
180
51
360
0
LINE
8
BLACK
10
141.451
20
-169.418
11
141.451
21
-165.1
0
LINE
8
BLACK
10
141.251
20
-169.418
11
141.251
21
-165.1
0
ARC
8
BLACK
10
141.351
20
-165.1
40
0.10033
50
360
51
540
0
ARC
8
BLACK
10
141.351
20
-169.418
40
0.10033
50
180
51
360
0
LINE
8
BLACK
10
141.351
20
-169.518
11
168.783
21
-169.518
0
LINE
8
BLACK
10
141.351
20
-169.318
11
168.783
21
-169.318
0
ARC
8
BLACK
10
168.783
20
-169.418
40
0.10033
50
270
51
450
0
ARC
8
BLACK
10
141.351
20
-169.418
40
0.10033
50
90
51
270
0
LINE
8
BLACK
10
168.883
20
-169.418
11
168.883
21
-165.1
0
LINE
8
BLACK
10
168.683
20
-169.418
11
168.683
21
-165.1
0
ARC
8
BLACK
10
168.783
20
-165.1
40
0.10033
50
360
51
540
0
ARC
8
BLACK
10
168.783
20
-169.418
40
0.10033
50
180
51
360
0
LINE
8
BLACK
10
164.819
20
-159.004
11
164.819
21
-152.146
0
LINE
8
BLACK
10
164.619
20
-159.004
11
164.619
21
-152.146
0
ARC
8
BLACK
10
164.719
20
-152.146
40
0.10033
50
360
51
540
0
ARC
8
BLACK
10
164.719
20
-159.004
40
0.10033
50
180
51
360
0
LINE
8
BLACK
10
163.422
20
-159.004
11
163.422
21
-154.686
0
LINE
8
BLACK
10
163.222
20
-159.004
11
163.222
21
-154.686
0
ARC
8
BLACK
10
163.322
20
-154.686
40
0.10033
50
360
51
540
0
ARC
8
BLACK
10
163.322
20
-159.004
40
0.10033
50
180
51
360
0
LINE
8
BLACK
10
162.025
20
-159.004
11
162.025
21
-152.146
0
LINE
8
BLACK
10
161.825
20
-159.004
11
161.825
21
-152.146
0
ARC
8
BLACK
10
161.925
20
-152.146
40
0.10033
50
360
51
540
0
ARC
8
BLACK
10
161.925
20
-159.004
40
0.10033
50
180
51
360
0
LINE
8
BLACK
10
160.628
20
-159.004
11
160.628
21
-154.686
0
LINE
8
BLACK
10
160.428
20
-159.004
11
160.428
21
-154.686
0
ARC
8
BLACK
10
160.528
20
-154.686
40
0.10033
50
360
51
540
0
ARC
8
BLACK
10
160.528
20
-159.004
40
0.10033
50
180
51
360
0
LINE
8
BLACK
10
159.231
20
-159.004
11
159.231
21
-152.146
0
LINE
8
BLACK
10
159.031
20
-159.004
11
159.031
21
-152.146
0
ARC
8
BLACK
10
159.131
20
-152.146
40
0.10033
50
360
51
540
0
ARC
8
BLACK
10
159.131
20
-159.004
40
0.10033
50
180
51
360
0
LINE
8
BLACK
10
157.961
20
-159.004
11
157.961
21
-154.686
0
LINE
8
BLACK
10
157.761
20
-159.004
11
157.761
21
-154.686
0
ARC
8
BLACK
10
157.861
20
-154.686
40
0.10033
50
360
51
540
0
ARC
8
BLACK
10
157.861
20
-159.004
40
0.10033
50
180
51
360
0
LINE
8
BLACK
10
156.564
20
-159.004
11
156.564
21
-152.146
0
LINE
8
BLACK
10
156.364
20
-159.004
11
156.364
21
-152.146
0
ARC
8
BLACK
10
156.464
20
-152.146
40
0.10033
50
360
51
540
0
ARC
8
BLACK
10
156.464
20
-159.004
40
0.10033
50
180
51
360
0
LINE
8
BLACK
10
155.167
20
-159.004
11
155.167
21
-154.686
0
LINE
8
BLACK
10
154.967
20
-159.004
11
154.967
21
-154.686
0
ARC
8
BLACK
10
155.067
20
-154.686
40
0.10033
50
360
51
540
0
ARC
8
BLACK
10
155.067
20
-159.004
40
0.10033
50
180
51
360
0
LINE
8
BLACK
10
153.77
20
-159.004
11
153.77
21
-152.146
0
LINE
8
BLACK
10
153.57
20
-159.004
11
153.57
21
-152.146
0
ARC
8
BLACK
10
153.67
20
-152.146
40
0.10033
50
360
51
540
0
ARC
8
BLACK
10
153.67
20
-159.004
40
0.10033
50
180
51
360
0
LINE
8
BLACK
10
152.373
20
-159.004
11
152.373
21
-154.686
0
LINE
8
BLACK
10
152.173
20
-159.004
11
152.173
21
-154.686
0
ARC
8
BLACK
10
152.273
20
-154.686
40
0.10033
50
360
51
540
0
ARC
8
BLACK
10
152.273
20
-159.004
40
0.10033
50
180
51
360
0
LINE
8
BLACK
10
151.103
20
-159.004
11
151.103
21
-152.146
0
LINE
8
BLACK
10
150.903
20
-159.004
11
150.903
21
-152.146
0
ARC
8
BLACK
10
151.003
20
-152.146
40
0.10033
50
360
51
540
0
ARC
8
BLACK
10
151.003
20
-159.004
40
0.10033
50
180
51
360
0
LINE
8
BLACK
10
149.706
20
-159.004
11
149.706
21
-154.686
0
LINE
8
BLACK
10
149.506
20
-159.004
11
149.506
21
-154.686
0
ARC
8
BLACK
10
149.606
20
-154.686
40
0.10033
50
360
51
540
0
ARC
8
BLACK
10
149.606
20
-159.004
40
0.10033
50
180
51
360
0
LINE
8
BLACK
10
148.309
20
-159.004
11
148.309
21
-152.146
0
LINE
8
BLACK
10
148.109
20
-159.004
11
148.109
21
-152.146
0
ARC
8
BLACK
10
148.209
20
-152.146
40
0.10033
50
360
51
540
0
ARC
8
BLACK
10
148.209
20
-159.004
40
0.10033
50
180
51
360
0
LINE
8
BLACK
10
146.912
20
-159.004
11
146.912
21
-154.686
0
LINE
8
BLACK
10
146.712
20
-159.004
11
146.712
21
-154.686
0
ARC
8
BLACK
10
146.812
20
-154.686
40
0.10033
50
360
51
540
0
ARC
8
BLACK
10
146.812
20
-159.004
40
0.10033
50
180
51
360
0
LINE
8
BLACK
10
145.515
20
-159.004
11
145.515
21
-152.146
0
LINE
8
BLACK
10
145.315
20
-159.004
11
145.315
21
-152.146
0
ARC
8
BLACK
10
145.415
20
-152.146
40
0.10033
50
360
51
540
0
ARC
8
BLACK
10
145.415
20
-159.004
40
0.10033
50
180
51
360
0
LINE
8
BLACK
10
141.451
20
-160.528
11
141.451
21
-159.004
0
LINE
8
BLACK
10
141.251
20
-160.528
11
141.251
21
-159.004
0
ARC
8
BLACK
10
141.351
20
-159.004
40
0.10033
50
360
51
540
0
ARC
8
BLACK
10
141.351
20
-160.528
40
0.10033
50
180
51
360
0
LINE
8
BLACK
10
141.351
20
-159.104
11
168.783
21
-159.104
0
LINE
8
BLACK
10
141.351
20
-158.904
11
168.783
21
-158.904
0
ARC
8
BLACK
10
168.783
20
-159.004
40
0.10033
50
270
51
450
0
ARC
8
BLACK
10
141.351
20
-159.004
40
0.10033
50
90
51
270
0
LINE
8
BLACK
10
168.883
20
-160.528
11
168.883
21
-159.004
0
LINE
8
BLACK
10
168.683
20
-160.528
11
168.683
21
-159.004
0
ARC
8
BLACK
10
168.783
20
-159.004
40
0.10033
50
360
51
540
0
ARC
8
BLACK
10
168.783
20
-160.528
40
0.10033
50
180
51
360
0
LINE
8
BLACK
10
135.382
20
-150.214
11
174.752
21
-150.214
0
LINE
8
BLACK
10
135.382
20
-150.014
11
174.752
21
-150.014
0
ARC
8
BLACK
10
174.752
20
-150.114
40
0.10033
50
270
51
450
0
ARC
8
BLACK
10
135.382
20
-150.114
40
0.10033
50
90
51
270
0
LINE
8
BLACK
10
135.382
20
-165.2
11
174.752
21
-165.2
0
LINE
8
BLACK
10
135.382
20
-165
11
174.752
21
-165
0
ARC
8
BLACK
10
174.752
20
-165.1
40
0.10033
50
270
51
450
0
ARC
8
BLACK
10
135.382
20
-165.1
40
0.10033
50
90
51
270
0
LINE
8
BLACK
10
135.382
20
-160.628
11
174.752
21
-160.628
0
LINE
8
BLACK
10
135.382
20
-160.428
11
174.752
21
-160.428
0
ARC
8
BLACK
10
174.752
20
-160.528
40
0.10033
50
270
51
450
0
ARC
8
BLACK
10
135.382
20
-160.528
40
0.10033
50
90
51
270
0
LINE
8
BLACK
10
135.482
20
-165.1
11
135.482
21
-150.114
0
LINE
8
BLACK
10
135.282
20
-165.1
11
135.282
21
-150.114
0
ARC
8
BLACK
10
135.382
20
-150.114
40
0.10033
50
360
51
540
0
ARC
8
BLACK
10
135.382
20
-165.1
40
0.10033
50
180
51
360
0
LINE
8
BLACK
10
174.852
20
-165.1
11
174.852
21
-150.114
0
LINE
8
BLACK
10
174.652
20
-165.1
11
174.652
21
-150.114
0
ARC
8
BLACK
10
174.752
20
-150.114
40
0.10033
50
360
51
540
0
ARC
8
BLACK
10
174.752
20
-165.1
40
0.10033
50
180
51
360
  0
ENDSEC
  0
EOF
