999
dxfrw 0.6.3
  0
SECTION
  2
HEADER
  9
$ACADVER
  1
AC1021
  9
$DWGCODEPAGE
  3
ANSI_1252
  9
$INSBASE
 10
0
 20
0
 30
0
  9
$EXTMIN
 10
1039.99871305
 20
340
 30
0
  9
$EXTMAX
 10
1159.99871305
 20
499.855207775
 30
0
  9
$LIMMIN
 10
0
 20
0
  9
$LIMMAX
 10
420
 20
297
  9
$ORTHOMODE
 70
    0
  9
$REGENMODE
 70
    1
  9
$FILLMODE
 70
    1
  9
$QTEXTMODE
 70
    0
  9
$MIRRTEXT
 70
    0
  9
$LTSCALE
 40
1
  9
$ATTMODE
 70
    1
  9
$TEXTSIZE
 40
2.5
  9
$TRACEWID
 40
0.05
  9
$TEXTSTYLE
  7
STANDARD
  9
$CLAYER
  8
0
  9
$CELTYPE
  6
BYLAYER
  9
$CECOLOR
 62
  256
  9
$CELTSCALE
 40
1
  9
$DISPSILH
 70
    0
  9
$DIMSCALE
 40
1
  9
$DIMASZ
 40
2.5
  9
$DIMEXO
 40
0.625
  9
$DIMDLI
 40
0.38
  9
$DIMRND
 40
0
  9
$DIMDLE
 40
0
  9
$DIMEXE
 40
1.25
  9
$DIMTP
 40
0
  9
$DIMTM
 40
0
  9
$DIMTXT
 40
2.5
  9
$DIMCEN
 40
0.09
  9
$DIMTSZ
 40
0
  9
$DIMTOL
 70
    0
  9
$DIMLIM
 70
    0
  9
$DIMTIH
 70
    0
  9
$DIMTOH
 70
    0
  9
$DIMSE1
 70
    0
  9
$DIMSE2
 70
    0
  9
$DIMTAD
 70
    0
  9
$DIMZIN
 70
    0
  9
$DIMBLK
  1

  9
$DIMASO
 70
    1
  9
$DIMSHO
 70
    1
  9
$DIMPOST
  1

  9
$DIMAPOST
  1

  9
$DIMALT
 70
    0
  9
$DIMALTD
 70
    2
  9
$DIMALTF
 40
25.4
  9
$DIMLFAC
 40
1
  9
$DIMTOFL
 70
    1
  9
$DIMTVP
 40
0
  9
$DIMTIX
 70
    0
  9
$DIMSOXD
 70
    0
  9
$DIMSAH
 70
    0
  9
$DIMBLK1
  1

  9
$DIMBLK2
  1

  9
$DIMSTYLE
  2
Standard
  9
$DIMCLRD
 70
    0
  9
$DIMCLRE
 70
    0
  9
$DIMCLRT
 70
    0
  9
$DIMTFAC
 40
1
  9
$DIMGAP
 40
0.625
  9
$DIMJUST
 70
    0
  9
$DIMSD1
 70
    0
  9
$DIMSD2
 70
    0
  9
$DIMTOLJ
 70
    1
  9
$DIMTZIN
 70
    0
  9
$DIMALTZ
 70
    0
  9
$DIMALTTZ
 70
    0
  9
$DIMUPT
 70
    0
  9
$DIMDEC
 70
    2
  9
$DIMTDEC
 70
    4
  9
$DIMALTU
 70
    2
  9
$DIMALTTD
 70
    2
  9
$DIMTXSTY
  7
STANDARD
  9
$DIMAUNIT
 70
    0
  9
$DIMADEC
 70
    0
  9
$DIMALTRND
 40
0
  9
$DIMAZIN
 70
    0
  9
$DIMDSEP
 70
   46
  9
$DIMATFIT
 70
    3
  9
$DIMFRAC
 70
    0
  9
$DIMLDRBLK
  1
STANDARD
  9
$DIMLUNIT
 70
    2
  9
$DIMLWD
 70
   -2
  9
$DIMLWE
 70
   -2
  9
$DIMTMOVE
 70
    0
  9
$DIMFXL
 40
1
  9
$DIMFXLON
 70
    0
  9
$DIMJOGANG
 40
0.7854
  9
$DIMTFILL
 70
    0
  9
$DIMTFILLCLR
 70
    0
  9
$DIMARCSYM
 70
    0
  9
$DIMLTYPE
  6

  9
$DIMLTEX1
  6

  9
$DIMLTEX2
  6

  9
$LUNITS
 70
    2
  9
$LUPREC
 70
    4
  9
$SKETCHINC
 40
0.1
  9
$FILLETRAD
 40
0.5
  9
$AUNITS
 70
    0
  9
$AUPREC
 70
    2
  9
$MENU
  1
.
  9
$ELEVATION
 40
0
  9
$PELEVATION
 40
0
  9
$THICKNESS
 40
0
  9
$LIMCHECK
 70
    0
  9
$CHAMFERA
 40
0
  9
$CHAMFERB
 40
0
  9
$CHAMFERC
 40
0
  9
$CHAMFERD
 40
0
  9
$SKPOLY
 70
    0
  9
$USRTIMER
 70
    1
  9
$ANGBASE
 50
0
  9
$ANGDIR
 70
    0
  9
$PDMODE
 70
    0
  9
$PDSIZE
 40
0
  9
$PLINEWID
 40
0
  9
$SPLFRAME
 70
    0
  9
$SPLINETYPE
 70
    6
  9
$SPLINESEGS
 70
    8
  9
$HANDSEED
  5
20000
  9
$SURFTAB1
 70
    6
  9
$SURFTAB2
 70
    6
  9
$SURFTYPE
 70
    6
  9
$SURFU
 70
    6
  9
$SURFV
 70
    6
  9
$UCSBASE
  2

  9
$UCSNAME
  2

  9
$UCSORG
 10
0
 20
0
 30
0
  9
$UCSXDIR
 10
1
 20
0
 30
0
  9
$UCSYDIR
 10
0
 20
1
 30
0
  9
$UCSORTHOREF
  2

  9
$UCSORTHOVIEW
 70
    0
  9
$UCSORGTOP
 10
0
 20
0
 30
0
  9
$UCSORGBOTTOM
 10
0
 20
0
 30
0
  9
$UCSORGLEFT
 10
0
 20
0
 30
0
  9
$UCSORGRIGHT
 10
0
 20
0
 30
0
  9
$UCSORGFRONT
 10
0
 20
0
 30
0
  9
$UCSORGBACK
 10
0
 20
0
 30
0
  9
$PUCSBASE
  2

  9
$PUCSNAME
  2

  9
$PUCSORG
 10
0
 20
0
 30
0
  9
$PUCSXDIR
 10
1
 20
0
 30
0
  9
$PUCSYDIR
 10
0
 20
1
 30
0
  9
$PUCSORTHOREF
  2

  9
$PUCSORTHOVIEW
 70
    0
  9
$PUCSORGTOP
 10
0
 20
0
 30
0
  9
$PUCSORGBOTTOM
 10
0
 20
0
 30
0
  9
$PUCSORGLEFT
 10
0
 20
0
 30
0
  9
$PUCSORGRIGHT
 10
0
 20
0
 30
0
  9
$PUCSORGFRONT
 10
0
 20
0
 30
0
  9
$PUCSORGBACK
 10
0
 20
0
 30
0
  9
$USERI1
 70
    0
  9
$USERI2
 70
    0
  9
$USERI3
 70
    0
  9
$USERI4
 70
    0
  9
$USERI5
 70
    0
  9
$USERR1
 40
0
  9
$USERR2
 40
0
  9
$USERR3
 40
0
  9
$USERR4
 40
0
  9
$USERR5
 40
0
  9
$WORLDVIEW
 70
    1
  9
$SHADEDGE
 70
    3
  9
$SHADEDIF
 70
   70
  9
$TILEMODE
 70
    1
  9
$MAXACTVP
 70
    2
  9
$PINSBASE
 10
0
 20
0
 30
0
  9
$PLIMCHECK
 70
    0
  9
$PEXTMIN
 10
1e+20
 20
1e+20
 30
1e+20
  9
$PEXTMAX
 10
-1e+20
 20
-1e+20
 30
-1e+20
  9
$GRIDMODE
 70
    1
  9
$SNAPSTYLE
 70
    0
  9
$PLIMMIN
 10
0
 20
0
  9
$PLIMMAX
 10
210
 20
297
  9
$UNITMODE
 70
    0
  9
$VISRETAIN
 70
    1
  9
$PLINEGEN
 70
    0
  9
$PSLTSCALE
 70
    1
  9
$TREEDEPTH
 70
 3020
  9
$CMLSTYLE
  2
Standard
  9
$CMLJUST
 70
    0
  9
$CMLSCALE
 40
1
  9
$PROXYGRAPHICS
 70
    1
  9
$MEASUREMENT
 70
    1
  9
$CELWEIGHT
370
   -1
  9
$ENDCAPS
280
    0
  9
$JOINSTYLE
280
    0
  9
$LWDISPLAY
290
    0
  9
$INSUNITS
 70
    4
  9
$HYPERLINKBASE
  1

  9
$STYLESHEET
  1

  9
$XEDIT
290
    1
  9
$CEPSNTYPE
380
    0
  9
$PSTYLEMODE
290
    1
  9
$EXTNAMES
290
    1
  9
$PSVPSCALE
 40
1
  9
$OLESTARTUP
290
    0
  9
$SORTENTS
280
  127
  9
$INDEXCTL
280
    0
  9
$HIDETEXT
280
    1
  9
$XCLIPFRAME
290
    0
  9
$HALOGAP
280
    0
  9
$OBSCOLOR
 70
  257
  9
$OBSLTYPE
280
    0
  9
$INTERSECTIONDISPLAY
280
    0
  9
$INTERSECTIONCOLOR
 70
  257
  9
$DIMASSOC
280
    1
  9
$PROJECTNAME
  1

  9
$CAMERADISPLAY
290
    0
  9
$LENSLENGTH
 40
50
  9
$CAMERAHEIGHT
 40
0
  9
$STEPSPERSEC
 40
2
  9
$STEPSIZE
 40
50
  9
$3DDWFPREC
 40
2
  9
$PSOLWIDTH
 40
5
  9
$PSOLHEIGHT
 40
80
  9
$LOFTANG1
 40
1.570796326794897
  9
$LOFTANG2
 40
1.570796326794897
  9
$LOFTMAG1
 40
0
  9
$LOFTMAG2
 40
0
  9
$LOFTPARAM
 70
    7
  9
$LOFTNORMALS
280
    1
  9
$LATITUDE
 40
1
  9
$LONGITUDE
 40
1
  9
$NORTHDIRECTION
 40
0
  9
$TIMEZONE
 70
-8000
  9
$LIGHTGLYPHDISPLAY
280
    1
  9
$TILEMODELIGHTSYNCH
280
    1
  9
$SOLIDHIST
280
    1
  9
$SHOWHIST
280
    1
  9
$DWFFRAME
280
    2
  9
$DGNFRAME
280
    0
  9
$REALWORLDSCALE
290
    1
  9
$INTERFERECOLOR
 62
    1
  9
$CSHADOW
280
    0
  9
$SHADOWPLANELOCATION
 40
0
  0
ENDSEC
  0
SECTION
  2
CLASSES
  0
ENDSEC
  0
SECTION
  2
TABLES
  0
TABLE
  2
VPORT
  5
8
330
0
100
AcDbSymbolTable
 70
    1
  0
VPORT
  5
31
330
2
100
AcDbSymbolTableRecord
100
AcDbViewportTableRecord
  2
*ACTIVE
 70
    0
 10
0
 20
0
 11
1
 21
1
 12
605.1272300494377
 22
246.8004842620597
 13
0
 23
0
 14
10
 24
10
 15
10
 25
10
 16
0
 26
0
 36
1
 17
0
 27
0
 37
0
 40
120.6039804866814
 41
1.244623655913978
 42
50
 43
0
 44
0
 50
0
 51
0
 71
    0
 72
  100
 73
    1
 74
    3
 75
    0
 76
    1
 77
    0
 78
    0
281
    0
 65
    1
110
0
120
0
130
0
111
1
121
0
131
0
112
0
122
1
132
0
 79
    0
146
0
348
10020
 60
    7
 61
    5
292
1
282
    1
141
0
142
0
 63
  250
421
3358443
  0
ENDTAB
  0
TABLE
  2
LTYPE
  5
5
330
0
100
AcDbSymbolTable
 70
    4
  0
LTYPE
  5
14
330
5
100
AcDbSymbolTableRecord
100
AcDbLinetypeTableRecord
  2
ByBlock
 70
    0
  3

 72
   65
 73
    0
 40
0
  0
LTYPE
  5
15
330
5
100
AcDbSymbolTableRecord
100
AcDbLinetypeTableRecord
  2
ByLayer
 70
    0
  3

 72
   65
 73
    0
 40
0
  0
LTYPE
  5
16
330
5
100
AcDbSymbolTableRecord
100
AcDbLinetypeTableRecord
  2
Continuous
 70
    0
  3
Solid line
 72
   65
 73
    0
 40
0
  0
LTYPE
  5
32
330
5
100
AcDbSymbolTableRecord
100
AcDbLinetypeTableRecord
  2
DOT
 70
    0
  3
Dot . . . . . . . . . . . . . . . . . . . . . .
 72
   65
 73
    2
 40
6.35
 49
0
 74
    0
 49
-6.35
 74
    0
  0
LTYPE
  5
33
330
5
100
AcDbSymbolTableRecord
100
AcDbLinetypeTableRecord
  2
DOTTINY
 70
    0
  3
Dot (.15x) .....................................
 72
   65
 73
    2
 40
0.9525
 49
0
 74
    0
 49
-0.9525
 74
    0
  0
LTYPE
  5
34
330
5
100
AcDbSymbolTableRecord
100
AcDbLinetypeTableRecord
  2
DOT2
 70
    0
  3
Dot (.5x) .....................................
 72
   65
 73
    2
 40
3.175
 49
0
 74
    0
 49
-3.175
 74
    0
  0
LTYPE
  5
35
330
5
100
AcDbSymbolTableRecord
100
AcDbLinetypeTableRecord
  2
DOTX2
 70
    0
  3
Dot (2x) .  .  .  .  .  .  .  .  .  .  .  .  .
 72
   65
 73
    2
 40
12.7
 49
0
 74
    0
 49
-12.7
 74
    0
  0
LTYPE
  5
36
330
5
100
AcDbSymbolTableRecord
100
AcDbLinetypeTableRecord
  2
DASHED
 70
    0
  3
Dashed _ _ _ _ _ _ _ _ _ _ _ _ _ _ _ _ _
 72
   65
 73
    2
 40
19.05
 49
12.7
 74
    0
 49
-6.35
 74
    0
  0
LTYPE
  5
37
330
5
100
AcDbSymbolTableRecord
100
AcDbLinetypeTableRecord
  2
DASHEDTINY
 70
    0
  3
Dashed (.15x) _ _ _ _ _ _ _ _ _ _ _ _ _ _ _ _ _
 72
   65
 73
    2
 40
2.8575
 49
1.905
 74
    0
 49
-0.9525
 74
    0
  0
LTYPE
  5
38
330
5
100
AcDbSymbolTableRecord
100
AcDbLinetypeTableRecord
  2
DASHED2
 70
    0
  3
Dashed (.5x) _ _ _ _ _ _ _ _ _ _ _ _ _ _ _ _ _
 72
   65
 73
    2
 40
9.524999999999999
 49
6.35
 74
    0
 49
-3.175
 74
    0
  0
LTYPE
  5
39
330
5
100
AcDbSymbolTableRecord
100
AcDbLinetypeTableRecord
  2
DASHEDX2
 70
    0
  3
Dashed (2x) ____  ____  ____  ____  ____  ___
 72
   65
 73
    2
 40
38.09999999999999
 49
25.4
 74
    0
 49
-12.7
 74
    0
  0
LTYPE
  5
3A
330
5
100
AcDbSymbolTableRecord
100
AcDbLinetypeTableRecord
  2
DASHDOT
 70
    0
  3
Dash dot __ . __ . __ . __ . __ . __ . __ . __
 72
   65
 73
    4
 40
25.4
 49
12.7
 74
    0
 49
-6.35
 74
    0
 49
0
 74
    0
 49
-6.35
 74
    0
  0
LTYPE
  5
3B
330
5
100
AcDbSymbolTableRecord
100
AcDbLinetypeTableRecord
  2
DASHDOTTINY
 70
    0
  3
Dash dot (.15x) _._._._._._._._._._._._._._._.
 72
   65
 73
    4
 40
3.81
 49
1.905
 74
    0
 49
-0.9525
 74
    0
 49
0
 74
    0
 49
-0.9525
 74
    0
  0
LTYPE
  5
3C
330
5
100
AcDbSymbolTableRecord
100
AcDbLinetypeTableRecord
  2
DASHDOT2
 70
    0
  3
Dash dot (.5x) _._._._._._._._._._._._._._._.
 72
   65
 73
    4
 40
12.7
 49
6.35
 74
    0
 49
-3.175
 74
    0
 49
0
 74
    0
 49
-3.175
 74
    0
  0
LTYPE
  5
3D
330
5
100
AcDbSymbolTableRecord
100
AcDbLinetypeTableRecord
  2
DASHDOTX2
 70
    0
  3
Dash dot (2x) ____  .  ____  .  ____  .  ___
 72
   65
 73
    4
 40
50.8
 49
25.4
 74
    0
 49
-12.7
 74
    0
 49
0
 74
    0
 49
-12.7
 74
    0
  0
LTYPE
  5
3E
330
5
100
AcDbSymbolTableRecord
100
AcDbLinetypeTableRecord
  2
DIVIDE
 70
    0
  3
Divide ____ . . ____ . . ____ . . ____ . . ____
 72
   65
 73
    6
 40
31.75
 49
12.7
 74
    0
 49
-6.35
 74
    0
 49
0
 74
    0
 49
-6.35
 74
    0
 49
0
 74
    0
 49
-6.35
 74
    0
  0
LTYPE
  5
3F
330
5
100
AcDbSymbolTableRecord
100
AcDbLinetypeTableRecord
  2
DIVIDETINY
 70
    0
  3
Divide (.15x) __..__..__..__..__..__..__..__.._
 72
   65
 73
    6
 40
4.7625
 49
1.905
 74
    0
 49
-0.9525
 74
    0
 49
0
 74
    0
 49
-0.9525
 74
    0
 49
0
 74
    0
 49
-0.9525
 74
    0
  0
LTYPE
  5
40
330
5
100
AcDbSymbolTableRecord
100
AcDbLinetypeTableRecord
  2
DIVIDE2
 70
    0
  3
Divide (.5x) __..__..__..__..__..__..__..__.._
 72
   65
 73
    6
 40
15.875
 49
6.35
 74
    0
 49
-3.175
 74
    0
 49
0
 74
    0
 49
-3.175
 74
    0
 49
0
 74
    0
 49
-3.175
 74
    0
  0
LTYPE
  5
41
330
5
100
AcDbSymbolTableRecord
100
AcDbLinetypeTableRecord
  2
DIVIDEX2
 70
    0
  3
Divide (2x) ________  .  .  ________  .  .  _
 72
   65
 73
    6
 40
63.5
 49
25.4
 74
    0
 49
-12.7
 74
    0
 49
0
 74
    0
 49
-12.7
 74
    0
 49
0
 74
    0
 49
-12.7
 74
    0
  0
LTYPE
  5
42
330
5
100
AcDbSymbolTableRecord
100
AcDbLinetypeTableRecord
  2
BORDER
 70
    0
  3
Border __ __ . __ __ . __ __ . __ __ . __ __ .
 72
   65
 73
    6
 40
44.45
 49
12.7
 74
    0
 49
-6.35
 74
    0
 49
12.7
 74
    0
 49
-6.35
 74
    0
 49
0
 74
    0
 49
-6.35
 74
    0
  0
LTYPE
  5
43
330
5
100
AcDbSymbolTableRecord
100
AcDbLinetypeTableRecord
  2
BORDERTINY
 70
    0
  3
Border (.15x) __.__.__.__.__.__.__.__.__.__.__.
 72
   65
 73
    6
 40
6.6675
 49
1.905
 74
    0
 49
-0.9525
 74
    0
 49
1.905
 74
    0
 49
-0.9525
 74
    0
 49
0
 74
    0
 49
-0.9525
 74
    0
  0
LTYPE
  5
44
330
5
100
AcDbSymbolTableRecord
100
AcDbLinetypeTableRecord
  2
BORDER2
 70
    0
  3
Border (.5x) __.__.__.__.__.__.__.__.__.__.__.
 72
   65
 73
    6
 40
22.225
 49
6.35
 74
    0
 49
-3.175
 74
    0
 49
6.35
 74
    0
 49
-3.175
 74
    0
 49
0
 74
    0
 49
-3.175
 74
    0
  0
LTYPE
  5
45
330
5
100
AcDbSymbolTableRecord
100
AcDbLinetypeTableRecord
  2
BORDERX2
 70
    0
  3
Border (2x) ____  ____  .  ____  ____  .  ___
 72
   65
 73
    6
 40
88.89999999999999
 49
25.4
 74
    0
 49
-12.7
 74
    0
 49
25.4
 74
    0
 49
-12.7
 74
    0
 49
0
 74
    0
 49
-12.7
 74
    0
  0
LTYPE
  5
46
330
5
100
AcDbSymbolTableRecord
100
AcDbLinetypeTableRecord
  2
CENTER
 70
    0
  3
Center ____ _ ____ _ ____ _ ____ _ ____ _ ____
 72
   65
 73
    4
 40
50.8
 49
31.75
 74
    0
 49
-6.35
 74
    0
 49
6.35
 74
    0
 49
-6.35
 74
    0
  0
LTYPE
  5
47
330
5
100
AcDbSymbolTableRecord
100
AcDbLinetypeTableRecord
  2
CENTERTINY
 70
    0
  3
Center (.15x) ___ _ ___ _ ___ _ ___ _ ___ _ ___
 72
   65
 73
    4
 40
7.619999999999999
 49
4.7625
 74
    0
 49
-0.9525
 74
    0
 49
0.9525
 74
    0
 49
-0.9525
 74
    0
  0
LTYPE
  5
48
330
5
100
AcDbSymbolTableRecord
100
AcDbLinetypeTableRecord
  2
CENTER2
 70
    0
  3
Center (.5x) ___ _ ___ _ ___ _ ___ _ ___ _ ___
 72
   65
 73
    4
 40
28.575
 49
19.05
 74
    0
 49
-3.175
 74
    0
 49
3.175
 74
    0
 49
-3.175
 74
    0
  0
LTYPE
  5
49
330
5
100
AcDbSymbolTableRecord
100
AcDbLinetypeTableRecord
  2
CENTERX2
 70
    0
  3
Center (2x) ________  __  ________  __  _____
 72
   65
 73
    4
 40
101.6
 49
63.5
 74
    0
 49
-12.7
 74
    0
 49
12.7
 74
    0
 49
-12.7
 74
    0
  0
ENDTAB
  0
TABLE
  2
LAYER
  5
2
330
0
100
AcDbSymbolTable
 70
    1
  0
LAYER
  5
10
330
2
100
AcDbSymbolTableRecord
100
AcDbLayerTableRecord
  2
0
 70
    0
 62
  255
  6
CONTINUOUS
370
    5
390
F
  0
LAYER
  5
4A
330
2
100
AcDbSymbolTableRecord
100
AcDbLayerTableRecord
  2
BLACK
 70
    0
 62
  251
420
5526612
  6
CONTINUOUS
370
    5
390
F
  0
LAYER
  5
4B
330
2
100
AcDbSymbolTableRecord
100
AcDbLayerTableRecord
  2
C00-00-00-BLACK
 70
    0
 62
  255
  6
CONTINUOUS
370
    5
390
F
  0
LAYER
  5
4C
330
2
100
AcDbSymbolTableRecord
100
AcDbLayerTableRecord
  2
Center Mark (ANSI)
 70
    0
 62
  255
  6
CONTINUOUS
370
    9
390
F
  0
LAYER
  5
4D
330
2
100
AcDbSymbolTableRecord
100
AcDbLayerTableRecord
  2
Centerline (ANSI)
 70
    0
 62
  255
  6
CONTINUOUS
370
    9
390
F
  0
LAYER
  5
4E
330
2
100
AcDbSymbolTableRecord
100
AcDbLayerTableRecord
  2
Defpoints
 70
    0
 62
  255
  6
CONTINUOUS
290
0
370
   -3
390
F
  0
LAYER
  5
4F
330
2
100
AcDbSymbolTableRecord
100
AcDbLayerTableRecord
  2
Dimension (ANSI)
 70
    0
 62
  255
  6
CONTINUOUS
370
    9
390
F
  0
LAYER
  5
50
330
2
100
AcDbSymbolTableRecord
100
AcDbLayerTableRecord
  2
Hilfslinien
 70
    0
 62
    3
  6
CONTINUOUS
370
    0
390
F
  0
LAYER
  5
51
330
2
100
AcDbSymbolTableRecord
100
AcDbLayerTableRecord
  2
Section Line (ANSI)
 70
    0
 62
  255
  6
CONTINUOUS
370
    9
390
F
  0
LAYER
  5
52
330
2
100
AcDbSymbolTableRecord
100
AcDbLayerTableRecord
  2
Symbol (ANSI)
 70
    0
 62
  255
  6
CONTINUOUS
370
    9
390
F
  0
LAYER
  5
53
330
2
100
AcDbSymbolTableRecord
100
AcDbLayerTableRecord
  2
Visible (ANSI)
 70
    0
 62
  255
  6
CONTINUOUS
370
   18
390
F
  0
ENDTAB
  0
TABLE
  2
STYLE
  5
3
330
0
100
AcDbSymbolTable
 70
    3
  0
STYLE
  5
54
330
2
100
AcDbSymbolTableRecord
100
AcDbTextStyleTableRecord
  2
textstyle2
 70
    0
 40
0
 41
1
 50
0
 71
    0
 42
1
  3
textstyle2
  4

  0
STYLE
  5
55
330
2
100
AcDbSymbolTableRecord
100
AcDbTextStyleTableRecord
  2
textstyle3
 70
    0
 40
0
 41
1
 50
0
 71
    0
 42
1
  3
textstyle3
  4

  0
STYLE
  5
56
330
2
100
AcDbSymbolTableRecord
100
AcDbTextStyleTableRecord
  2
textstyle1
 70
    0
 40
0
 41
1
 50
0
 71
    0
 42
1
  3
textstyle1
  4

  0
STYLE
  5
57
330
2
100
AcDbSymbolTableRecord
100
AcDbTextStyleTableRecord
  2
textstyle0
 70
    0
 40
0
 41
1
 50
0
 71
    0
 42
1
  3
textstyle0
  4

  0
STYLE
  5
58
330
2
100
AcDbSymbolTableRecord
100
AcDbTextStyleTableRecord
  2
Standard
 70
    0
 40
0
 41
1
 50
0
 71
    0
 42
1
  3
txt
  4

  0
ENDTAB
  0
TABLE
  2
VIEW
  5
6
330
0
100
AcDbSymbolTable
 70
    0
  0
ENDTAB
  0
TABLE
  2
UCS
  5
7
330
0
100
AcDbSymbolTable
 70
    0
  0
ENDTAB
  0
TABLE
  2
APPID
  5
9
330
0
100
AcDbSymbolTable
 70
    1
  0
APPID
  5
12
330
9
100
AcDbSymbolTableRecord
100
AcDbRegAppTableRecord
  2
ACAD
 70
    0
  0
APPID
  5
59
330
9
100
AcDbSymbolTableRecord
100
AcDbRegAppTableRecord
  2
LibreCad
 70
    0
  0
ENDTAB
  0
TABLE
  2
DIMSTYLE
  5
A
330
0
100
AcDbSymbolTable
 70
    1
100
AcDbDimStyleTable
 71
    1
  0
DIMSTYLE
105
5A
330
A
100
AcDbSymbolTableRecord
100
AcDbDimStyleTableRecord
  2
Standard
 70
    0
 40
1
 41
2.5
 42
0.625
 43
0.38
 44
1.25
 45
0
 46
0
 47
0
 48
0
 49
1
140
2.5
141
0.09
142
0
143
25.4
144
1
145
0
146
1
147
0.625
148
0
 71
    0
 72
    0
 73
    0
 74
    1
 75
    0
 76
    0
 77
    0
 78
    0
 79
    0
170
    0
171
    2
172
    0
173
    0
174
    0
175
    0
176
    0
177
    0
178
    0
179
    0
271
    2
272
    4
273
    2
274
    2
275
    0
276
    0
277
    2
278
   46
279
    0
280
    0
281
    0
282
    0
283
    1
284
    0
285
    0
286
    0
288
    0
289
    3
340
standard
341

371
   -2
372
   -2
  0
ENDTAB
  0
TABLE
  2
BLOCK_RECORD
  5
1
330
0
100
AcDbSymbolTable
 70
    2
  0
BLOCK_RECORD
  5
1F
330
1
100
AcDbSymbolTableRecord
100
AcDbBlockTableRecord
  2
*Model_Space
 70
    0
280
    1
281
    0
  0
BLOCK_RECORD
  5
1E
330
1
100
AcDbSymbolTableRecord
100
AcDbBlockTableRecord
  2
*Paper_Space
 70
    0
280
    1
281
    0
  0
BLOCK_RECORD
  5
5B
330
1
100
AcDbSymbolTableRecord
100
AcDbBlockTableRecord
  2
Base
 70
    0
280
    1
281
    0
  0
BLOCK_RECORD
  5
5E
330
1
100
AcDbSymbolTableRecord
100
AcDbBlockTableRecord
  2
block 1
 70
    0
280
    1
281
    0
  0
BLOCK_RECORD
  5
61
330
1
100
AcDbSymbolTableRecord
100
AcDbBlockTableRecord
  2
Umrandung
 70
    0
280
    1
281
    0
  0
BLOCK_RECORD
  5
64
330
1
100
AcDbSymbolTableRecord
100
AcDbBlockTableRecord
  2
Quadrat
 70
    0
280
    1
281
    0
  0
BLOCK_RECORD
  5
67
330
1
100
AcDbSymbolTableRecord
100
AcDbBlockTableRecord
  2
Lid
 70
    0
280
    1
281
    0
  0
BLOCK_RECORD
  5
6A
330
1
100
AcDbSymbolTableRecord
100
AcDbBlockTableRecord
  2
groß
 70
    0
280
    1
281
    0
  0
BLOCK_RECORD
  5
6D
330
1
100
AcDbSymbolTableRecord
100
AcDbBlockTableRecord
  2
2dTransSection4
 70
    0
280
    1
281
    0
  0
BLOCK_RECORD
  5
70
330
1
100
AcDbSymbolTableRecord
100
AcDbBlockTableRecord
  2
Wanne
 70
    0
280
    1
281
    0
  0
BLOCK_RECORD
  5
73
330
1
100
AcDbSymbolTableRecord
100
AcDbBlockTableRecord
  2
Platine
 70
    0
280
    1
281
    0
  0
BLOCK_RECORD
  5
76
330
1
100
AcDbSymbolTableRecord
100
AcDbBlockTableRecord
  2
Unterteil
 70
    0
280
    1
281
    0
  0
ENDTAB
  0
ENDSEC
  0
SECTION
  2
BLOCKS
  0
BLOCK
  5
20
330
1F
100
AcDbEntity
  8
0
100
AcDbBlockBegin
  2
*Model_Space
 70
    0
 10
0
 20
0
 30
0
  3
*Model_Space
  1

  0
ENDBLK
  5
21
330
1F
100
AcDbEntity
  8
0
100
AcDbBlockEnd
  0
BLOCK
  5
1C
330
1B
100
AcDbEntity
  8
0
100
AcDbBlockBegin
  2
*Paper_Space
 70
    0
 10
0
 20
0
 30
0
  3
*Paper_Space
  1

  0
ENDBLK
  5
1D
330
1F
100
AcDbEntity
  8
0
100
AcDbBlockEnd
  0
BLOCK
  5
5C
330
5B
100
AcDbEntity
  8
0
100
AcDbBlockBegin
  2
Base
 70
    0
 10
0
 20
0
  3
Base
  1

  0
ARC
  5
79
100
AcDbEntity
  8
Visible (ANSI)
  6
ByLayer
 62
  256
370
   -1
100
AcDbCircle
 10
110.504613651
 20
8.42607244033
 40
0.6
100
AcDbArc
 50
270.40154024
 51
0
  0
ARC
  5
7A
100
AcDbEntity
  8
Visible (ANSI)
  6
ByLayer
 62
  256
370
   -1
100
AcDbCircle
 10
110.55
 20
1.9500000082
 40
5.87623147108
100
AcDbArc
 50
90.40154024040001
 51
179.59845976
  0
ARC
  5
7B
100
AcDbEntity
  8
Visible (ANSI)
  6
ByLayer
 62
  256
370
   -1
100
AcDbCircle
 10
104.073927568
 20
1.99538635736
 40
0.6
100
AcDbArc
 50
270
 51
359.5984597600001
  0
LINE
  5
7C
100
AcDbEntity
  8
Visible (ANSI)
  6
ByLayer
 62
  256
370
   -1
100
AcDbLine
 10
104.073927568
 20
1.39538635736
 11
6.42607243214
 21
1.39538635736
  0
ARC
  5
7D
100
AcDbEntity
  8
Visible (ANSI)
  6
ByLayer
 62
  256
370
   -1
100
AcDbCircle
 10
6.42607243214
 20
1.99538635736
 40
0.6
100
AcDbArc
 50
180.40154024
 51
270
  0
ARC
  5
7E
100
AcDbEntity
  8
Visible (ANSI)
  6
ByLayer
 62
  256
370
   -1
100
AcDbCircle
 10
-0.05
 20
1.9500000082
 40
5.87623147108
100
AcDbArc
 50
0.4015402403950001
 51
89.59845975959999
  0
ARC
  5
7F
100
AcDbEntity
  8
Visible (ANSI)
  6
ByLayer
 62
  256
370
   -1
100
AcDbCircle
 10
-0.00461365083129
 20
8.42607244033
 40
0.6
100
AcDbArc
 50
180
 51
269.59845976
  0
LINE
  5
80
100
AcDbEntity
  8
Visible (ANSI)
  6
ByLayer
 62
  256
370
   -1
100
AcDbLine
 10
-0.604613650831
 20
8.42607244033
 11
-0.604613650831
 21
106.073927576
  0
ARC
  5
81
100
AcDbEntity
  8
Visible (ANSI)
  6
ByLayer
 62
  256
370
   -1
100
AcDbCircle
 10
-0.00461365083129
 20
106.073927576
 40
0.6
100
AcDbArc
 50
90.40154024040001
 51
180
  0
LINE
  5
82
100
AcDbEntity
  8
Visible (ANSI)
  6
ByLayer
 62
  256
370
   -1
100
AcDbLine
 10
111.104613651
 20
106.073927576
 11
111.104613651
 21
8.42607244033
  0
ARC
  5
83
100
AcDbEntity
  8
Visible (ANSI)
  6
ByLayer
 62
  256
370
   -1
100
AcDbCircle
 10
110.504613651
 20
106.073927576
 40
0.6
100
AcDbArc
 50
0
 51
89.59845975959999
  0
ARC
  5
84
100
AcDbEntity
  8
Visible (ANSI)
  6
ByLayer
 62
  256
370
   -1
100
AcDbCircle
 10
110.55
 20
112.550000008
 40
5.87623147108
100
AcDbArc
 50
180.40154024
 51
269.59845976
  0
ARC
  5
85
100
AcDbEntity
  8
Visible (ANSI)
  6
ByLayer
 62
  256
370
   -1
100
AcDbCircle
 10
104.073927568
 20
112.504613659
 40
0.6
100
AcDbArc
 50
0.4015402403950001
 51
90
  0
LINE
  5
86
100
AcDbEntity
  8
Visible (ANSI)
  6
ByLayer
 62
  256
370
   -1
100
AcDbLine
 10
6.42607243214
 20
113.104613659
 11
104.073927568
 21
113.104613659
  0
ARC
  5
87
100
AcDbEntity
  8
Visible (ANSI)
  6
ByLayer
 62
  256
370
   -1
100
AcDbCircle
 10
6.42607243214
 20
112.504613659
 40
0.6
100
AcDbArc
 50
90
 51
179.59845976
  0
ARC
  5
88
100
AcDbEntity
  8
Visible (ANSI)
  6
ByLayer
 62
  256
370
   -1
100
AcDbCircle
 10
-0.05
 20
112.550000008
 40
5.87623147108
100
AcDbArc
 50
270.40154024
 51
359.5984597600001
  0
LINE
  5
89
100
AcDbEntity
  8
Visible (ANSI)
  6
ByLayer
 62
  256
370
   -1
100
AcDbLine
 10
125.25
 20
13
 11
125.25
 21
7
  0
LINE
  5
8A
100
AcDbEntity
  8
Visible (ANSI)
  6
ByLayer
 62
  256
370
   -1
100
AcDbLine
 10
128.25
 20
7
 11
128.25
 21
13
  0
ARC
  5
8B
100
AcDbEntity
  8
Visible (ANSI)
  6
ByLayer
 62
  256
370
   -1
100
AcDbCircle
 10
123.25
 20
7
 40
5
100
AcDbArc
 50
180
 51
0
  0
ARC
  5
8C
100
AcDbEntity
  8
Visible (ANSI)
  6
ByLayer
 62
  256
370
   -1
100
AcDbCircle
 10
123.25
 20
7
 40
2
100
AcDbArc
 50
180
 51
0
  0
LINE
  5
8D
100
AcDbEntity
  8
Visible (ANSI)
  6
ByLayer
 62
  256
370
   -1
100
AcDbLine
 10
118.25
 20
13
 11
118.25
 21
7
  0
LINE
  5
8E
100
AcDbEntity
  8
Visible (ANSI)
  6
ByLayer
 62
  256
370
   -1
100
AcDbLine
 10
121.25
 20
7
 11
121.25
 21
13
  0
ARC
  5
8F
100
AcDbEntity
  8
Visible (ANSI)
  6
ByLayer
 62
  256
370
   -1
100
AcDbCircle
 10
123.25
 20
13
 40
5
100
AcDbArc
 50
0
 51
180
  0
ARC
  5
90
100
AcDbEntity
  8
Visible (ANSI)
  6
ByLayer
 62
  256
370
   -1
100
AcDbCircle
 10
123.25
 20
13
 40
2
100
AcDbArc
 50
0
 51
180
  0
LINE
  5
91
100
AcDbEntity
  8
Visible (ANSI)
  6
ByLayer
 62
  256
370
   -1
100
AcDbLine
 10
118.25
 20
107.5
 11
118.25
 21
101.5
  0
ARC
  5
92
100
AcDbEntity
  8
Visible (ANSI)
  6
ByLayer
 62
  256
370
   -1
100
AcDbCircle
 10
123.25
 20
107.5
 40
5
100
AcDbArc
 50
0
 51
180
  0
LINE
  5
93
100
AcDbEntity
  8
Visible (ANSI)
  6
ByLayer
 62
  256
370
   -1
100
AcDbLine
 10
128.25
 20
101.5
 11
128.25
 21
107.5
  0
ARC
  5
94
100
AcDbEntity
  8
Visible (ANSI)
  6
ByLayer
 62
  256
370
   -1
100
AcDbCircle
 10
123.25
 20
101.5
 40
5
100
AcDbArc
 50
180
 51
0
  0
LINE
  5
95
100
AcDbEntity
  8
Visible (ANSI)
  6
ByLayer
 62
  256
370
   -1
100
AcDbLine
 10
121.25
 20
101.5
 11
121.25
 21
107.5
  0
ARC
  5
96
100
AcDbEntity
  8
Visible (ANSI)
  6
ByLayer
 62
  256
370
   -1
100
AcDbCircle
 10
123.25
 20
107.5
 40
2
100
AcDbArc
 50
0
 51
180
  0
LINE
  5
97
100
AcDbEntity
  8
Visible (ANSI)
  6
ByLayer
 62
  256
370
   -1
100
AcDbLine
 10
125.25
 20
107.5
 11
125.25
 21
101.5
  0
ARC
  5
98
100
AcDbEntity
  8
Visible (ANSI)
  6
ByLayer
 62
  256
370
   -1
100
AcDbCircle
 10
123.25
 20
101.5
 40
2
100
AcDbArc
 50
180
 51
0
  0
ARC
  5
99
100
AcDbEntity
  8
Visible (ANSI)
  6
ByLayer
 62
  256
370
   -1
100
AcDbCircle
 10
-12.75
 20
101.5
 40
5
100
AcDbArc
 50
180
 51
0
  0
LINE
  5
9A
100
AcDbEntity
  8
Visible (ANSI)
  6
ByLayer
 62
  256
370
   -1
100
AcDbLine
 10
-17.75
 20
107.5
 11
-17.75
 21
101.5
  0
ARC
  5
9B
100
AcDbEntity
  8
Visible (ANSI)
  6
ByLayer
 62
  256
370
   -1
100
AcDbCircle
 10
-12.75
 20
107.5
 40
5
100
AcDbArc
 50
0
 51
180
  0
LINE
  5
9C
100
AcDbEntity
  8
Visible (ANSI)
  6
ByLayer
 62
  256
370
   -1
100
AcDbLine
 10
-7.75
 20
101.5
 11
-7.75
 21
107.5
  0
ARC
  5
9D
100
AcDbEntity
  8
Visible (ANSI)
  6
ByLayer
 62
  256
370
   -1
100
AcDbCircle
 10
-12.75
 20
101.5
 40
2
100
AcDbArc
 50
180
 51
0
  0
LINE
  5
9E
100
AcDbEntity
  8
Visible (ANSI)
  6
ByLayer
 62
  256
370
   -1
100
AcDbLine
 10
-10.75
 20
107.5
 11
-10.75
 21
101.5
  0
LINE
  5
9F
100
AcDbEntity
  8
Visible (ANSI)
  6
ByLayer
 62
  256
370
   -1
100
AcDbLine
 10
-14.75
 20
101.5
 11
-14.75
 21
107.5
  0
ARC
  5
A0
100
AcDbEntity
  8
Visible (ANSI)
  6
ByLayer
 62
  256
370
   -1
100
AcDbCircle
 10
-12.75
 20
107.5
 40
2
100
AcDbArc
 50
0
 51
180
  0
CIRCLE
  5
A1
100
AcDbEntity
  8
Visible (ANSI)
  6
ByLayer
 62
  256
370
   -1
100
AcDbCircle
 10
0
 20
112.5
 40
2
  0
CIRCLE
  5
A2
100
AcDbEntity
  8
Visible (ANSI)
  6
ByLayer
 62
  256
370
   -1
100
AcDbCircle
 10
110.5
 20
2
 40
2
  0
CIRCLE
  5
A3
100
AcDbEntity
  8
Visible (ANSI)
  6
ByLayer
 62
  256
370
   -1
100
AcDbCircle
 10
0
 20
2
 40
2
  0
CIRCLE
  5
A4
100
AcDbEntity
  8
Visible (ANSI)
  6
ByLayer
 62
  256
370
   -1
100
AcDbCircle
 10
110.5
 20
112.5
 40
2
  0
ARC
  5
A5
100
AcDbEntity
  8
Visible (ANSI)
  6
ByLayer
 62
  256
370
   -1
100
AcDbCircle
 10
-0.05
 20
8.4500000082
 40
2
100
AcDbArc
 50
180
 51
270
  0
LINE
  5
A6
100
AcDbEntity
  8
Visible (ANSI)
  6
ByLayer
 62
  256
370
   -1
100
AcDbLine
 10
-2.05
 20
8.4500000082
 11
-2.05
 21
106.050000008
  0
ARC
  5
A7
100
AcDbEntity
  8
Visible (ANSI)
  6
ByLayer
 62
  256
370
   -1
100
AcDbCircle
 10
-0.05
 20
106.050000008
 40
2
100
AcDbArc
 50
90
 51
180
  0
ARC
  5
A8
100
AcDbEntity
  8
Visible (ANSI)
  6
ByLayer
 62
  256
370
   -1
100
AcDbCircle
 10
-0.05
 20
112.550000008
 40
4.5
100
AcDbArc
 50
270
 51
0
  0
ARC
  5
A9
100
AcDbEntity
  8
Visible (ANSI)
  6
ByLayer
 62
  256
370
   -1
100
AcDbCircle
 10
6.45
 20
112.550000008
 40
2
100
AcDbArc
 50
90
 51
180
  0
LINE
  5
AA
100
AcDbEntity
  8
Visible (ANSI)
  6
ByLayer
 62
  256
370
   -1
100
AcDbLine
 10
6.45
 20
114.550000008
 11
104.05
 21
114.550000008
  0
ARC
  5
AB
100
AcDbEntity
  8
Visible (ANSI)
  6
ByLayer
 62
  256
370
   -1
100
AcDbCircle
 10
104.05
 20
112.550000008
 40
2
100
AcDbArc
 50
0
 51
90
  0
ARC
  5
AC
100
AcDbEntity
  8
Visible (ANSI)
  6
ByLayer
 62
  256
370
   -1
100
AcDbCircle
 10
110.55
 20
112.550000008
 40
4.5
100
AcDbArc
 50
180
 51
270
  0
ARC
  5
AD
100
AcDbEntity
  8
Visible (ANSI)
  6
ByLayer
 62
  256
370
   -1
100
AcDbCircle
 10
110.55
 20
106.050000008
 40
2
100
AcDbArc
 50
0
 51
90
  0
LINE
  5
AE
100
AcDbEntity
  8
Visible (ANSI)
  6
ByLayer
 62
  256
370
   -1
100
AcDbLine
 10
112.55
 20
106.050000008
 11
112.55
 21
8.4500000082
  0
ARC
  5
AF
100
AcDbEntity
  8
Visible (ANSI)
  6
ByLayer
 62
  256
370
   -1
100
AcDbCircle
 10
110.55
 20
8.4500000082
 40
2
100
AcDbArc
 50
270
 51
0
  0
ARC
  5
B0
100
AcDbEntity
  8
Visible (ANSI)
  6
ByLayer
 62
  256
370
   -1
100
AcDbCircle
 10
110.55
 20
1.9500000082
 40
4.5
100
AcDbArc
 50
90
 51
180
  0
ARC
  5
B1
100
AcDbEntity
  8
Visible (ANSI)
  6
ByLayer
 62
  256
370
   -1
100
AcDbCircle
 10
104.05
 20
1.9500000082
 40
2
100
AcDbArc
 50
270
 51
0
  0
LINE
  5
B2
100
AcDbEntity
  8
Visible (ANSI)
  6
ByLayer
 62
  256
370
   -1
100
AcDbLine
 10
104.05
 20
-0.0499999918044
 11
6.45
 21
-0.0499999918044
  0
ARC
  5
B3
100
AcDbEntity
  8
Visible (ANSI)
  6
ByLayer
 62
  256
370
   -1
100
AcDbCircle
 10
6.45
 20
1.9500000082
 40
2
100
AcDbArc
 50
180
 51
270
  0
ARC
  5
B4
100
AcDbEntity
  8
Visible (ANSI)
  6
ByLayer
 62
  256
370
   -1
100
AcDbCircle
 10
-0.05
 20
1.9500000082
 40
4.5
100
AcDbArc
 50
0
 51
90
  0
ARC
  5
B5
100
AcDbEntity
  8
Visible (ANSI)
  6
ByLayer
 62
  256
370
   -1
100
AcDbCircle
 10
-0.05
 20
8.4500000082
 40
1.95461365083
100
AcDbArc
 50
180
 51
270
  0
LINE
  5
B6
100
AcDbEntity
  8
Visible (ANSI)
  6
ByLayer
 62
  256
370
   -1
100
AcDbLine
 10
-2.00461365083
 20
8.4500000082
 11
-2.00461365083
 21
106.050000008
  0
ARC
  5
B7
100
AcDbEntity
  8
Visible (ANSI)
  6
ByLayer
 62
  256
370
   -1
100
AcDbCircle
 10
-0.05
 20
106.050000008
 40
1.95461365083
100
AcDbArc
 50
90
 51
180
  0
ARC
  5
B8
100
AcDbEntity
  8
Visible (ANSI)
  6
ByLayer
 62
  256
370
   -1
100
AcDbCircle
 10
-0.05
 20
112.550000008
 40
4.54538634917
100
AcDbArc
 50
270
 51
0
  0
ARC
  5
B9
100
AcDbEntity
  8
Visible (ANSI)
  6
ByLayer
 62
  256
370
   -1
100
AcDbCircle
 10
6.45
 20
112.550000008
 40
1.95461365083
100
AcDbArc
 50
90
 51
180
  0
LINE
  5
BA
100
AcDbEntity
  8
Visible (ANSI)
  6
ByLayer
 62
  256
370
   -1
100
AcDbLine
 10
6.45
 20
114.504613659
 11
104.05
 21
114.504613659
  0
ARC
  5
BB
100
AcDbEntity
  8
Visible (ANSI)
  6
ByLayer
 62
  256
370
   -1
100
AcDbCircle
 10
104.05
 20
112.550000008
 40
1.95461365083
100
AcDbArc
 50
0
 51
90
  0
ARC
  5
BC
100
AcDbEntity
  8
Visible (ANSI)
  6
ByLayer
 62
  256
370
   -1
100
AcDbCircle
 10
110.55
 20
112.550000008
 40
4.54538634917
100
AcDbArc
 50
180
 51
270
  0
ARC
  5
BD
100
AcDbEntity
  8
Visible (ANSI)
  6
ByLayer
 62
  256
370
   -1
100
AcDbCircle
 10
110.55
 20
106.050000008
 40
1.95461365083
100
AcDbArc
 50
0
 51
90
  0
LINE
  5
BE
100
AcDbEntity
  8
Visible (ANSI)
  6
ByLayer
 62
  256
370
   -1
100
AcDbLine
 10
112.504613651
 20
106.050000008
 11
112.504613651
 21
8.4500000082
  0
ARC
  5
BF
100
AcDbEntity
  8
Visible (ANSI)
  6
ByLayer
 62
  256
370
   -1
100
AcDbCircle
 10
110.55
 20
8.4500000082
 40
1.95461365083
100
AcDbArc
 50
270
 51
0
  0
ARC
  5
C0
100
AcDbEntity
  8
Visible (ANSI)
  6
ByLayer
 62
  256
370
   -1
100
AcDbCircle
 10
110.55
 20
1.9500000082
 40
4.54538634917
100
AcDbArc
 50
90
 51
180
  0
ARC
  5
C1
100
AcDbEntity
  8
Visible (ANSI)
  6
ByLayer
 62
  256
370
   -1
100
AcDbCircle
 10
104.05
 20
1.9500000082
 40
1.95461365083
100
AcDbArc
 50
270
 51
0
  0
LINE
  5
C2
100
AcDbEntity
  8
Visible (ANSI)
  6
ByLayer
 62
  256
370
   -1
100
AcDbLine
 10
104.05
 20
-0.00461364263572
 11
6.45
 21
-0.00461364263572
  0
ARC
  5
C3
100
AcDbEntity
  8
Visible (ANSI)
  6
ByLayer
 62
  256
370
   -1
100
AcDbCircle
 10
6.45
 20
1.9500000082
 40
1.95461365083
100
AcDbArc
 50
180
 51
270
  0
ARC
  5
C4
100
AcDbEntity
  8
Visible (ANSI)
  6
ByLayer
 62
  256
370
   -1
100
AcDbCircle
 10
-0.05
 20
1.9500000082
 40
4.54538634917
100
AcDbArc
 50
0
 51
90
  0
ARC
  5
C5
100
AcDbEntity
  8
Visible (ANSI)
  6
ByLayer
 62
  256
370
   -1
100
AcDbCircle
 10
-14.75
 20
109.417842464
 40
5
100
AcDbArc
 50
104.887643875
 51
180
  0
LINE
  5
C6
100
AcDbEntity
  8
Visible (ANSI)
  6
ByLayer
 62
  256
370
   -1
100
AcDbLine
 10
-19.75
 20
109.417842464
 11
-19.75
 21
5.08215755238
  0
ARC
  5
C7
100
AcDbEntity
  8
Visible (ANSI)
  6
ByLayer
 62
  256
370
   -1
100
AcDbCircle
 10
-14.75
 20
5.08215755238
 40
5
100
AcDbArc
 50
180
 51
255.112356938
  0
LINE
  5
C8
100
AcDbEntity
  8
Visible (ANSI)
  6
ByLayer
 62
  256
370
   -1
100
AcDbLine
 10
-16.0346218478
 20
0.249999989958
 11
-5.38134554077
 21
-2.58215755423
  0
ARC
  5
C9
100
AcDbEntity
  8
Visible (ANSI)
  6
ByLayer
 62
  256
370
   -1
100
AcDbCircle
 10
-4.09672369294
 20
2.25000000819
 40
5
100
AcDbArc
 50
255.112356938
 51
270
  0
LINE
  5
CA
100
AcDbEntity
  8
Visible (ANSI)
  6
ByLayer
 62
  256
370
   -1
100
AcDbLine
 10
-4.09672369293
 20
-2.7499999918
 11
114.596724911
 21
-2.7499999918
  0
ARC
  5
CB
100
AcDbEntity
  8
Visible (ANSI)
  6
ByLayer
 62
  256
370
   -1
100
AcDbCircle
 10
114.596724911
 20
2.2500000082
 40
5
100
AcDbArc
 50
270
 51
284.887644606
  0
LINE
  5
CC
100
AcDbEntity
  8
Visible (ANSI)
  6
ByLayer
 62
  256
370
   -1
100
AcDbLine
 10
115.881346889
 20
-2.5821575196
 11
126.534621978
 21
0.250000008196
  0
ARC
  5
CD
100
AcDbEntity
  8
Visible (ANSI)
  6
ByLayer
 62
  256
370
   -1
100
AcDbCircle
 10
125.25
 20
5.08215753599
 40
5
100
AcDbArc
 50
284.887644606
 51
0
  0
LINE
  5
CE
100
AcDbEntity
  8
Visible (ANSI)
  6
ByLayer
 62
  256
370
   -1
100
AcDbLine
 10
130.25
 20
5.08215753599
 11
130.25
 21
109.417842464
  0
ARC
  5
CF
100
AcDbEntity
  8
Visible (ANSI)
  6
ByLayer
 62
  256
370
   -1
100
AcDbCircle
 10
125.25
 20
109.417842464
 40
5
100
AcDbArc
 50
0
 51
75.11235612470001
  0
LINE
  5
D0
100
AcDbEntity
  8
Visible (ANSI)
  6
ByLayer
 62
  256
370
   -1
100
AcDbLine
 10
126.534621916
 20
114.250000008
 11
115.881346218
 21
117.082157552
  0
ARC
  5
D1
100
AcDbEntity
  8
Visible (ANSI)
  6
ByLayer
 62
  256
370
   -1
100
AcDbCircle
 10
114.596724302
 20
112.250000008
 40
5
100
AcDbArc
 50
75.11235612470001
 51
90
  0
LINE
  5
D2
100
AcDbEntity
  8
Visible (ANSI)
  6
ByLayer
 62
  256
370
   -1
100
AcDbLine
 10
114.596724302
 20
117.250000008
 11
-4.09672430203
 21
117.250000008
  0
ARC
  5
D3
100
AcDbEntity
  8
Visible (ANSI)
  6
ByLayer
 62
  256
370
   -1
100
AcDbCircle
 10
-4.09672430203
 20
112.250000008
 40
5
100
AcDbArc
 50
90
 51
104.887643875
  0
LINE
  5
D4
100
AcDbEntity
  8
Visible (ANSI)
  6
ByLayer
 62
  256
370
   -1
100
AcDbLine
 10
-5.38134621847
 20
117.082157552
 11
-16.0346219164
 21
114.250000008
  0
LINE
  5
D5
100
AcDbEntity
  8
Visible (ANSI)
  6
ByLayer
 62
  256
370
   -1
100
AcDbLine
 10
-7.75
 20
7
 11
-7.75
 21
13
  0
ARC
  5
D6
100
AcDbEntity
  8
Visible (ANSI)
  6
ByLayer
 62
  256
370
   -1
100
AcDbCircle
 10
-12.75
 20
7
 40
5
100
AcDbArc
 50
180
 51
0
  0
LINE
  5
D7
100
AcDbEntity
  8
Visible (ANSI)
  6
ByLayer
 62
  256
370
   -1
100
AcDbLine
 10
-17.75
 20
13
 11
-17.75
 21
7
  0
ARC
  5
D8
100
AcDbEntity
  8
Visible (ANSI)
  6
ByLayer
 62
  256
370
   -1
100
AcDbCircle
 10
-12.75
 20
13
 40
5
100
AcDbArc
 50
0
 51
180
  0
LINE
  5
D9
100
AcDbEntity
  8
Visible (ANSI)
  6
ByLayer
 62
  256
370
   -1
100
AcDbLine
 10
-10.75
 20
13
 11
-10.75
 21
7
  0
ARC
  5
DA
100
AcDbEntity
  8
Visible (ANSI)
  6
ByLayer
 62
  256
370
   -1
100
AcDbCircle
 10
-12.75
 20
7
 40
2
100
AcDbArc
 50
180
 51
0
  0
LINE
  5
DB
100
AcDbEntity
  8
Visible (ANSI)
  6
ByLayer
 62
  256
370
   -1
100
AcDbLine
 10
-14.75
 20
7
 11
-14.75
 21
13
  0
ARC
  5
DC
100
AcDbEntity
  8
Visible (ANSI)
  6
ByLayer
 62
  256
370
   -1
100
AcDbCircle
 10
-12.75
 20
13
 40
2
100
AcDbArc
 50
0
 51
180
  0
LINE
  5
DD
100
AcDbEntity
  8
Center Mark (ANSI)
  6
CONTINUOUS
 62
  256
370
   -1
100
AcDbLine
 10
114.166666667
 20
112.5
 11
106.833333333
 21
112.5
  0
LINE
  5
DE
100
AcDbEntity
  8
Center Mark (ANSI)
  6
CONTINUOUS
 62
  256
370
   -1
100
AcDbLine
 10
110.5
 20
116.166666667
 11
110.5
 21
108.833333333
  0
LINE
  5
DF
100
AcDbEntity
  8
Center Mark (ANSI)
  6
CONTINUOUS
 62
  256
370
   -1
100
AcDbLine
 10
3.66666666667
 20
112.5
 11
-3.66666666667
 21
112.5
  0
LINE
  5
E0
100
AcDbEntity
  8
Center Mark (ANSI)
  6
CONTINUOUS
 62
  256
370
   -1
100
AcDbLine
 10
0
 20
116.166666667
 11
0
 21
108.833333333
  0
LINE
  5
E1
100
AcDbEntity
  8
Center Mark (ANSI)
  6
CONTINUOUS
 62
  256
370
   -1
100
AcDbLine
 10
3.66666666667
 20
2
 11
-3.66666666667
 21
2
  0
LINE
  5
E2
100
AcDbEntity
  8
Center Mark (ANSI)
  6
CONTINUOUS
 62
  256
370
   -1
100
AcDbLine
 10
0
 20
5.66666666667
 11
0
 21
-1.66666666667
  0
LINE
  5
E3
100
AcDbEntity
  8
Center Mark (ANSI)
  6
CONTINUOUS
 62
  256
370
   -1
100
AcDbLine
 10
114.166666667
 20
2
 11
106.833333333
 21
2
  0
LINE
  5
E4
100
AcDbEntity
  8
Center Mark (ANSI)
  6
CONTINUOUS
 62
  256
370
   -1
100
AcDbLine
 10
110.5
 20
5.66666666667
 11
110.5
 21
-1.66666666667
  0
LINE
  5
E5
100
AcDbEntity
  8
Centerline (ANSI)
  6
CONTINUOUS
 62
  256
370
   -1
100
AcDbLine
 10
-12.75
 20
113.394798145
 11
-12.75
 21
94.7694995577
  0
LINE
  5
E6
100
AcDbEntity
  8
Center Mark (ANSI)
  6
CONTINUOUS
 62
  256
370
   -1
100
AcDbLine
 10
129.916666667
 20
101.5
 11
116.583333333
 21
101.5
  0
LINE
  5
E7
100
AcDbEntity
  8
Center Mark (ANSI)
  6
CONTINUOUS
 62
  256
370
   -1
100
AcDbLine
 10
123.25
 20
101.5
 11
123.25
 21
94.8333333333
  0
LINE
  5
E8
100
AcDbEntity
  8
Center Mark (ANSI)
  6
CONTINUOUS
 62
  256
370
   -1
100
AcDbLine
 10
129.916666667
 20
107.5
 11
116.583333333
 21
107.5
  0
LINE
  5
E9
100
AcDbEntity
  8
Center Mark (ANSI)
  6
CONTINUOUS
 62
  256
370
   -1
100
AcDbLine
 10
123.25
 20
114.166666667
 11
123.25
 21
107.5
  0
LINE
  5
EA
100
AcDbEntity
  8
Center Mark (ANSI)
  6
CONTINUOUS
 62
  256
370
   -1
100
AcDbLine
 10
129.916666667
 20
13
 11
116.583333333
 21
13
  0
LINE
  5
EB
100
AcDbEntity
  8
Center Mark (ANSI)
  6
CONTINUOUS
 62
  256
370
   -1
100
AcDbLine
 10
123.25
 20
19.6666666667
 11
123.25
 21
13
  0
LINE
  5
EC
100
AcDbEntity
  8
Center Mark (ANSI)
  6
CONTINUOUS
 62
  256
370
   -1
100
AcDbLine
 10
129.916666667
 20
7
 11
116.583333333
 21
7
  0
LINE
  5
ED
100
AcDbEntity
  8
Center Mark (ANSI)
  6
CONTINUOUS
 62
  256
370
   -1
100
AcDbLine
 10
123.25
 20
7
 11
123.25
 21
0.333333333333
  0
LINE
  5
EE
100
AcDbEntity
  8
Center Mark (ANSI)
  6
CONTINUOUS
 62
  256
370
   -1
100
AcDbLine
 10
-6.08333333333
 20
7
 11
-19.4166666667
 21
7
  0
LINE
  5
EF
100
AcDbEntity
  8
Center Mark (ANSI)
  6
CONTINUOUS
 62
  256
370
   -1
100
AcDbLine
 10
-12.75
 20
7
 11
-12.75
 21
0.333333333333
  0
LINE
  5
F0
100
AcDbEntity
  8
Center Mark (ANSI)
  6
CONTINUOUS
 62
  256
370
   -1
100
AcDbLine
 10
-6.08333333333
 20
13
 11
-19.4166666667
 21
13
  0
LINE
  5
F1
100
AcDbEntity
  8
Center Mark (ANSI)
  6
CONTINUOUS
 62
  256
370
   -1
100
AcDbLine
 10
-12.75
 20
19.6666666667
 11
-12.75
 21
13
  0
LINE
  5
F2
100
AcDbEntity
  8
Center Mark (ANSI)
  6
CONTINUOUS
 62
  256
370
   -1
100
AcDbLine
 10
-6.08333333333
 20
101.5
 11
-19.4166666667
 21
101.5
  0
LINE
  5
F3
100
AcDbEntity
  8
Center Mark (ANSI)
  6
CONTINUOUS
 62
  256
370
   -1
100
AcDbLine
 10
-12.75
 20
101.5
 11
-12.75
 21
94.8333333333
  0
LINE
  5
F4
100
AcDbEntity
  8
Center Mark (ANSI)
  6
CONTINUOUS
 62
  256
370
   -1
100
AcDbLine
 10
-6.08333333333
 20
107.5
 11
-19.4166666667
 21
107.5
  0
LINE
  5
F5
100
AcDbEntity
  8
Center Mark (ANSI)
  6
CONTINUOUS
 62
  256
370
   -1
100
AcDbLine
 10
-12.75
 20
114.166666667
 11
-12.75
 21
107.5
  0
ENDBLK
  5
5D
330
5B
100
AcDbEntity
  8
0
100
AcDbBlockEnd
  0
BLOCK
  5
5F
330
5E
100
AcDbEntity
  8
0
100
AcDbBlockBegin
  2
block 1
 70
    0
 10
0
 20
0
  3
block 1
  1

  0
LWPOLYLINE
  5
F6
100
AcDbEntity
  8
C00-00-00-BLACK
  6
ByLayer
 62
  256
370
   -1
100
AcDbPolyline
 90
   10
 70
    0
 43
0
 10
110.471588484
 20
10.587944403
 10
109.414428141
 20
10.514910297
 10
108.42396561
 20
10.233779013
 10
107.506870675
 20
9.738214258999999
 10
106.586440849
 20
9.1726168
 10
105.882778916
 20
8.400589609000001
 10
105.319182392
 20
7.550192487
 10
104.752250978
 20
6.636098953
 10
104.542152865
 20
5.574936741
 10
104.46878527
 20
4.586475145
  0
LWPOLYLINE
  5
F7
100
AcDbEntity
  8
C00-00-00-BLACK
  6
ByLayer
 62
  256
370
   -1
100
AcDbPolyline
 90
    2
 70
    0
 43
0
 10
103.908523637
 20
4.094912259
 10
6.0728359183
 20
4.094912259
  0
LWPOLYLINE
  5
F8
100
AcDbEntity
  8
C00-00-00-BLACK
  6
ByLayer
 62
  256
370
   -1
100
AcDbPolyline
 90
   10
 70
    0
 43
0
 10
5.5759372078
 20
4.586475145
 10
5.5059045037
 20
5.574936741
 10
5.2224387963
 20
6.636098953
 10
4.7989076807
 20
7.550192487
 10
4.2353111567
 20
8.400589609000001
 10
3.4582816295
 20
9.1726168
 10
2.6112193982
 20
9.738214258999999
 10
1.6941244627
 20
10.233779013
 10
0.7036619323
 20
10.514910297
 10
-0.42019622497
 20
10.587944403
  0
LWPOLYLINE
  5
F9
100
AcDbEntity
  8
C00-00-00-BLACK
  6
ByLayer
 62
  256
370
   -1
100
AcDbPolyline
 90
    2
 70
    0
 43
0
 10
-0.91709493548
 20
11.079507288
 10
-0.91709493548
 20
108.915195007
  0
LWPOLYLINE
  5
FA
100
AcDbEntity
  8
C00-00-00-BLACK
  6
ByLayer
 62
  256
370
   -1
100
AcDbPolyline
 90
    2
 70
    0
 43
0
 10
6.0728359183
 20
115.905792839
 10
103.908523637
 20
115.905792839
  0
LWPOLYLINE
  5
FB
100
AcDbEntity
  8
C00-00-00-BLACK
  6
ByLayer
 62
  256
370
   -1
100
AcDbPolyline
 90
    2
 70
    0
 43
0
 10
110.968487195
 20
108.915195007
 10
110.968487195
 20
11.079507288
  0
LWPOLYLINE
  5
FC
100
AcDbEntity
  8
C00-00-00-BLACK
  6
ByLayer
 62
  256
370
   -1
100
AcDbPolyline
 90
    2
 70
    1
 43
0
 10
-0.42019622497
 20
10.587944403
 10
-0.42019622497
 20
10.587944403
  0
LWPOLYLINE
  5
FD
100
AcDbEntity
  8
C00-00-00-BLACK
  6
ByLayer
 62
  256
370
   -1
100
AcDbPolyline
 90
    2
 70
    1
 43
0
 10
104.46878527
 20
4.586475145
 10
104.46878527
 20
4.586475145
  0
LWPOLYLINE
  5
FE
100
AcDbEntity
  8
C00-00-00-BLACK
  6
ByLayer
 62
  256
370
   -1
100
AcDbPolyline
 90
    2
 70
    1
 43
0
 10
5.5759372078
 20
4.586475145
 10
5.5759372078
 20
4.586475145
  0
LWPOLYLINE
  5
FF
100
AcDbEntity
  8
C00-00-00-BLACK
  6
ByLayer
 62
  256
370
   -1
100
AcDbPolyline
 90
    2
 70
    1
 43
0
 10
110.471588484
 20
10.587944403
 10
110.471588484
 20
10.587944403
  0
LWPOLYLINE
  5
100
100
AcDbEntity
  8
C00-00-00-BLACK
  6
ByLayer
 62
  256
370
   -1
100
AcDbPolyline
 90
    2
 70
    1
 43
0
 10
110.471588484
 20
109.411760228
 10
110.471588484
 20
109.411760228
  0
LWPOLYLINE
  5
101
100
AcDbEntity
  8
C00-00-00-BLACK
  6
ByLayer
 62
  256
370
   -1
100
AcDbPolyline
 90
   10
 70
    0
 43
0
 10
104.46878527
 20
115.482261723
 10
104.542152865
 20
114.351733784
 10
104.752250978
 20
113.364606145
 10
105.319182392
 20
112.376478038
 10
105.882778916
 20
111.525747427
 10
106.586440849
 20
110.822418984
 10
107.506870675
 20
110.188122777
 10
108.42396561
 20
109.761256771
 10
109.414428141
 20
109.549491213
 10
110.471588484
 20
109.411760228
  0
LWPOLYLINE
  5
102
100
AcDbEntity
  8
C00-00-00-BLACK
  6
ByLayer
 62
  256
370
   -1
100
AcDbPolyline
 90
    2
 70
    1
 43
0
 10
104.46878527
 20
115.482261723
 10
104.46878527
 20
115.482261723
  0
LWPOLYLINE
  5
103
100
AcDbEntity
  8
C00-00-00-BLACK
  6
ByLayer
 62
  256
370
   -1
100
AcDbPolyline
 90
    2
 70
    1
 43
0
 10
5.5759372078
 20
115.482261723
 10
5.5759372078
 20
115.482261723
  0
LWPOLYLINE
  5
104
100
AcDbEntity
  8
C00-00-00-BLACK
  6
ByLayer
 62
  256
370
   -1
100
AcDbPolyline
 90
   10
 70
    0
 43
0
 10
-0.42019622497
 20
109.411760228
 10
0.7036619323
 20
109.549491213
 10
1.6941244627
 20
109.761256771
 10
2.6112193982
 20
110.188122777
 10
3.4582816295
 20
110.822418984
 10
4.2353111567
 20
111.525747427
 10
4.7989076807
 20
112.376478038
 10
5.2224387963
 20
113.364606145
 10
5.5059045037
 20
114.351733784
 10
5.5759372078
 20
115.482261723
  0
LWPOLYLINE
  5
105
100
AcDbEntity
  8
C00-00-00-BLACK
  6
ByLayer
 62
  256
370
   -1
100
AcDbPolyline
 90
    2
 70
    1
 43
0
 10
-0.42019622497
 20
109.411760228
 10
-0.42019622497
 20
109.411760228
  0
LWPOLYLINE
  5
106
100
AcDbEntity
  8
C00-00-00-BLACK
  6
ByLayer
 62
  256
370
   -1
100
AcDbPolyline
 90
    4
 70
    0
 43
0
 10
104.46878527
 20
115.482261723
 10
104.332054753
 20
115.694027281
 10
104.188654454
 20
115.905792839
 10
103.908523637
 20
115.905792839
  0
LWPOLYLINE
  5
107
100
AcDbEntity
  8
C00-00-00-BLACK
  6
ByLayer
 62
  256
370
   -1
100
AcDbPolyline
 90
    4
 70
    0
 43
0
 10
110.968487195
 20
108.915195007
 10
110.891784709
 20
109.200995138
 10
110.681686597
 20
109.338726122
 10
110.471588484
 20
109.411760228
  0
LWPOLYLINE
  5
108
100
AcDbEntity
  8
C00-00-00-BLACK
  6
ByLayer
 62
  256
370
   -1
100
AcDbPolyline
 90
    4
 70
    0
 43
0
 10
6.0728359183
 20
115.905792839
 10
5.8627378058
 20
115.905792839
 10
5.645969912
 20
115.694027281
 10
5.5759372078
 20
115.482261723
  0
LWPOLYLINE
  5
109
100
AcDbEntity
  8
C00-00-00-BLACK
  6
ByLayer
 62
  256
370
   -1
100
AcDbPolyline
 90
    4
 70
    0
 43
0
 10
-0.42019622497
 20
109.411760228
 10
-0.70699682298
 20
109.338726122
 10
-0.84706223131
 20
109.200995138
 10
-0.91709493548
 20
108.915195007
  0
LWPOLYLINE
  5
10A
100
AcDbEntity
  8
C00-00-00-BLACK
  6
ByLayer
 62
  256
370
   -1
100
AcDbPolyline
 90
    4
 70
    0
 43
0
 10
-0.91709493548
 20
11.079507288
 10
-0.84706223131
 20
10.869075687
 10
-0.70699682298
 20
10.657310129
 10
-0.42019622497
 20
10.587944403
  0
LWPOLYLINE
  5
10B
100
AcDbEntity
  8
C00-00-00-BLACK
  6
ByLayer
 62
  256
370
   -1
100
AcDbPolyline
 90
    4
 70
    0
 43
0
 10
5.5759372078
 20
4.586475145
 10
5.645969912
 20
4.305343861
 10
5.8627378058
 20
4.162944029
 10
6.0728359183
 20
4.094912259
  0
LWPOLYLINE
  5
10C
100
AcDbEntity
  8
C00-00-00-BLACK
  6
ByLayer
 62
  256
370
   -1
100
AcDbPolyline
 90
    4
 70
    0
 43
0
 10
103.908523637
 20
4.094912259
 10
104.188654454
 20
4.162944029
 10
104.332054753
 20
4.305343861
 10
104.46878527
 20
4.586475145
  0
LWPOLYLINE
  5
10D
100
AcDbEntity
  8
C00-00-00-BLACK
  6
ByLayer
 62
  256
370
   -1
100
AcDbPolyline
 90
    4
 70
    0
 43
0
 10
110.471588484
 20
10.587944403
 10
110.681686597
 20
10.657310129
 10
110.891784709
 20
10.869075687
 10
110.968487195
 20
11.079507288
  0
LWPOLYLINE
  5
10E
100
AcDbEntity
  8
C00-00-00-BLACK
  6
ByLayer
 62
  256
370
   -1
100
AcDbPolyline
 90
   21
 70
    1
 43
0
 10
-0.2834657073
 20
2.679584657
 10
-0.84706223131
 20
2.821984489
 10
-1.41399364598
 20
3.106450663
 10
-1.83752476165
 20
3.528981312
 10
-2.11765557831
 20
4.094912259
 10
-2.1843533918
 20
4.728874977
 10
-2.11765557831
 20
5.363171183
 10
-1.83752476165
 20
5.927768174
 10
-1.41399364598
 20
6.35129929
 10
-0.84706223131
 20
6.636098953
 10
-0.2834657073
 20
6.704130723
 10
0.3501635208
 20
6.636098953
 10
0.9170949355
 20
6.35129929
 10
1.3439609419
 20
5.927768174
 10
1.6941244627
 20
5.363171183
 10
1.7674920575
 20
4.728874977
 10
1.6941244627
 20
4.094912259
 10
1.3439609419
 20
3.528981312
 10
0.9170949355
 20
3.106450663
 10
0.3501635208
 20
2.821984489
 10
-0.2834657073
 20
2.679584657
  0
LWPOLYLINE
  5
10F
100
AcDbEntity
  8
C00-00-00-BLACK
  6
ByLayer
 62
  256
370
   -1
100
AcDbPolyline
 90
   21
 70
    1
 43
0
 10
110.258155481
 20
113.222206313
 10
109.694558957
 20
113.364606145
 10
109.127627543
 20
113.644736961
 10
108.707431318
 20
114.066934121
 10
108.42396561
 20
114.705899174
 10
108.350598015
 20
115.271830122
 10
108.42396561
 20
115.905792839
 10
108.707431318
 20
116.470723319
 10
109.127627543
 20
116.894254435
 10
109.694558957
 20
117.174051762
 10
110.258155481
 20
117.247085868
 10
110.968487195
 20
117.174051762
 10
111.458716124
 20
116.894254435
 10
111.88224724
 20
116.470723319
 10
112.235745651
 20
115.905792839
 10
112.302443465
 20
115.271830122
 10
112.235745651
 20
114.705899174
 10
111.88224724
 20
114.066934121
 10
111.458716124
 20
113.644736961
 10
110.968487195
 20
113.364606145
 10
110.258155481
 20
113.222206313
  0
LWPOLYLINE
  5
110
100
AcDbEntity
  8
C00-00-00-BLACK
  6
ByLayer
 62
  256
370
   -1
100
AcDbPolyline
 90
   21
 70
    1
 43
0
 10
110.258155481
 20
2.679584657
 10
109.694558957
 20
2.821984489
 10
109.127627543
 20
3.106450663
 10
108.707431318
 20
3.528981312
 10
108.42396561
 20
4.094912259
 10
108.350598015
 20
4.728874977
 10
108.42396561
 20
5.363171183
 10
108.707431318
 20
5.927768174
 10
109.127627543
 20
6.35129929
 10
109.694558957
 20
6.636098953
 10
110.258155481
 20
6.704130723
 10
110.968487195
 20
6.636098953
 10
111.458716124
 20
6.35129929
 10
111.88224724
 20
5.927768174
 10
112.235745651
 20
5.363171183
 10
112.302443465
 20
4.728874977
 10
112.235745651
 20
4.094912259
 10
111.88224724
 20
3.528981312
 10
111.458716124
 20
3.106450663
 10
110.968487195
 20
2.821984489
 10
110.258155481
 20
2.679584657
  0
LWPOLYLINE
  5
111
100
AcDbEntity
  8
C00-00-00-BLACK
  6
ByLayer
 62
  256
370
   -1
100
AcDbPolyline
 90
   21
 70
    1
 43
0
 10
-0.2834657073
 20
113.222206313
 10
-0.84706223131
 20
113.364606145
 10
-1.41399364598
 20
113.644736961
 10
-1.83752476165
 20
114.066934121
 10
-2.11765557831
 20
114.705899174
 10
-2.1843533918
 20
115.271830122
 10
-2.11765557831
 20
115.905792839
 10
-1.83752476165
 20
116.470723319
 10
-1.41399364598
 20
116.894254435
 10
-0.84706223131
 20
117.174051762
 10
-0.2834657073
 20
117.247085868
 10
0.3501635208
 20
117.174051762
 10
0.9170949355
 20
116.894254435
 10
1.3439609419
 20
116.470723319
 10
1.6941244627
 20
115.905792839
 10
1.7674920575
 20
115.271830122
 10
1.6941244627
 20
114.705899174
 10
1.3439609419
 20
114.066934121
 10
0.9170949355
 20
113.644736961
 10
0.3501635208
 20
113.364606145
 10
-0.2834657073
 20
113.222206313
  0
LWPOLYLINE
  5
112
100
AcDbEntity
  8
C00-00-00-BLACK
  6
ByLayer
 62
  256
370
   -1
100
AcDbPolyline
 90
    4
 70
    0
 43
0
 10
5.645969912
 20
2.679584657
 10
5.2224387963
 20
2.821984489
 10
4.7989076807
 20
2.964384321
 10
4.518776864
 20
3.318216221
  0
LWPOLYLINE
  5
113
100
AcDbEntity
  8
C00-00-00-BLACK
  6
ByLayer
 62
  256
370
   -1
100
AcDbPolyline
 90
    3
 70
    0
 43
0
 10
4.518776864
 20
3.318216221
 10
4.3086787515
 20
3.74074687
 10
4.2353111567
 20
4.232309755
  0
LWPOLYLINE
  5
114
100
AcDbEntity
  8
C00-00-00-BLACK
  6
ByLayer
 62
  256
370
   -1
100
AcDbPolyline
 90
    6
 70
    0
 43
0
 10
5.645969912
 20
2.610218931
 10
5.1524060922
 20
2.679584657
 10
4.7322098672
 20
2.964384321
 10
4.375376565
 20
3.318216221
 10
4.2353111567
 20
3.74074687
 10
4.1652784525
 20
4.162944029
  0
LWPOLYLINE
  5
115
100
AcDbEntity
  8
C00-00-00-BLACK
  6
ByLayer
 62
  256
370
   -1
100
AcDbPolyline
 90
    6
 70
    0
 43
0
 10
105.882778916
 20
4.232309755
 10
105.809411321
 20
3.74074687
 10
105.529280505
 20
3.318216221
 10
105.175782093
 20
2.964384321
 10
104.895651277
 20
2.821984489
 10
104.332054753
 20
2.679584657
  0
LWPOLYLINE
  5
116
100
AcDbEntity
  8
C00-00-00-BLACK
  6
ByLayer
 62
  256
370
   -1
100
AcDbPolyline
 90
    6
 70
    0
 43
0
 10
112.302443465
 20
10.657310129
 10
112.235745651
 20
10.165413754
 10
112.092345352
 20
9.811248365000001
 10
111.745516722
 20
9.457082975000001
 10
111.315315825
 20
9.246651373000001
 10
110.825086896
 20
9.1726168
  0
LWPOLYLINE
  5
117
100
AcDbEntity
  8
C00-00-00-BLACK
  6
ByLayer
 62
  256
370
   -1
100
AcDbPolyline
 90
    6
 70
    0
 43
0
 10
110.825086896
 20
110.822418984
 10
111.315315825
 20
110.680019152
 10
111.745516722
 20
110.53761932
 10
112.092345352
 20
110.188122777
 10
112.235745651
 20
109.761256771
 10
112.302443465
 20
109.338726122
  0
LWPOLYLINE
  5
118
100
AcDbEntity
  8
C00-00-00-BLACK
  6
ByLayer
 62
  256
370
   -1
100
AcDbPolyline
 90
    6
 70
    0
 43
0
 10
104.332054753
 20
117.247085868
 10
104.895651277
 20
117.247085868
 10
105.175782093
 20
116.962286204
 10
105.529280505
 20
116.608120815
 10
105.809411321
 20
116.185923655
 10
105.882778916
 20
115.763393007
  0
LWPOLYLINE
  5
119
100
AcDbEntity
  8
C00-00-00-BLACK
  6
ByLayer
 62
  256
370
   -1
100
AcDbPolyline
 90
    6
 70
    0
 43
0
 10
4.2353111567
 20
115.763393007
 10
4.3086787515
 20
116.185923655
 10
4.518776864
 20
116.608120815
 10
4.7989076807
 20
116.962286204
 10
5.2224387963
 20
117.247085868
 10
5.645969912
 20
117.247085868
  0
LWPOLYLINE
  5
11A
100
AcDbEntity
  8
C00-00-00-BLACK
  6
ByLayer
 62
  256
370
   -1
100
AcDbPolyline
 90
    6
 70
    0
 43
0
 10
-2.26105587731
 20
109.338726122
 10
-2.1843533918
 20
109.761256771
 10
-1.9742552793
 20
110.188122777
 10
-1.62742664915
 20
110.53761932
 10
-1.19722575214
 20
110.680019152
 10
-0.77369463647
 20
110.822418984
  0
LWPOLYLINE
  5
11B
100
AcDbEntity
  8
C00-00-00-BLACK
  6
ByLayer
 62
  256
370
   -1
100
AcDbPolyline
 90
    6
 70
    0
 43
0
 10
-0.77369463647
 20
9.1726168
 10
-1.19722575214
 20
9.246651373000001
 10
-1.62742664915
 20
9.457082975000001
 10
-1.9742552793
 20
9.811248365000001
 10
-2.1843533918
 20
10.165413754
 10
-2.26105587731
 20
10.657310129
  0
LWPOLYLINE
  5
11C
100
AcDbEntity
  8
C00-00-00-BLACK
  6
ByLayer
 62
  256
370
   -1
100
AcDbPolyline
 90
    6
 70
    0
 43
0
 10
-0.77369463647
 20
9.1726168
 10
-1.27059334698
 20
9.246651373000001
 10
-1.69412446264
 20
9.389051204999999
 10
-2.04762287414
 20
9.738214258999999
 10
-2.1843533918
 20
10.165413754
 10
-2.26105587731
 20
10.587944403
  0
LWPOLYLINE
  5
11D
100
AcDbEntity
  8
C00-00-00-BLACK
  6
ByLayer
 62
  256
370
   -1
100
AcDbPolyline
 90
    6
 70
    0
 43
0
 10
105.882778916
 20
4.162944029
 10
105.809411321
 20
3.74074687
 10
105.599313209
 20
3.318216221
 10
105.319182392
 20
2.964384321
 10
104.895651277
 20
2.679584657
 10
104.46878527
 20
2.610218931
  0
LWPOLYLINE
  5
11E
100
AcDbEntity
  8
C00-00-00-BLACK
  6
ByLayer
 62
  256
370
   -1
100
AcDbPolyline
 90
    6
 70
    0
 43
0
 10
112.302443465
 20
10.587944403
 10
112.302443465
 20
10.165413754
 10
112.092345352
 20
9.738214258999999
 10
111.745516722
 20
9.389051204999999
 10
111.315315825
 20
9.246651373000001
 10
110.891784709
 20
9.1726168
  0
LWPOLYLINE
  5
11F
100
AcDbEntity
  8
C00-00-00-BLACK
  6
ByLayer
 62
  256
370
   -1
100
AcDbPolyline
 90
    6
 70
    0
 43
0
 10
110.891784709
 20
110.89178471
 10
111.315315825
 20
110.822418984
 10
111.745516722
 20
110.53761932
 10
112.092345352
 20
110.257488503
 10
112.302443465
 20
109.835291344
 10
112.302443465
 20
109.338726122
  0
LWPOLYLINE
  5
120
100
AcDbEntity
  8
C00-00-00-BLACK
  6
ByLayer
 62
  256
370
   -1
100
AcDbPolyline
 90
    6
 70
    0
 43
0
 10
104.46878527
 20
117.316451594
 10
104.895651277
 20
117.247085868
 10
105.319182392
 20
117.036320777
 10
105.599313209
 20
116.751854603
 10
105.809411321
 20
116.328323487
 10
105.882778916
 20
115.763393007
  0
LWPOLYLINE
  5
121
100
AcDbEntity
  8
C00-00-00-BLACK
  6
ByLayer
 62
  256
370
   -1
100
AcDbPolyline
 90
    6
 70
    0
 43
0
 10
4.1652784525
 20
115.763393007
 10
4.2353111567
 20
116.328323487
 10
4.375376565
 20
116.751854603
 10
4.7322098672
 20
117.036320777
 10
5.1524060922
 20
117.247085868
 10
5.645969912
 20
117.316451594
  0
LWPOLYLINE
  5
122
100
AcDbEntity
  8
C00-00-00-BLACK
  6
ByLayer
 62
  256
370
   -1
100
AcDbPolyline
 90
    6
 70
    0
 43
0
 10
-2.26105587731
 20
109.338726122
 10
-2.1843533918
 20
109.835291344
 10
-2.04762287414
 20
110.257488503
 10
-1.69412446264
 20
110.53761932
 10
-1.27059334698
 20
110.822418984
 10
-0.77369463647
 20
110.89178471
  0
LWPOLYLINE
  5
123
100
AcDbEntity
  8
C00-00-00-BLACK
  6
ByLayer
 62
  256
370
   -1
100
AcDbPolyline
 90
    2
 70
    0
 43
0
 10
4.2353111567
 20
4.232309755
 10
4.2353111567
 20
5.009005793
  0
LWPOLYLINE
  5
124
100
AcDbEntity
  8
C00-00-00-BLACK
  6
ByLayer
 62
  256
370
   -1
100
AcDbPolyline
 90
    2
 70
    0
 43
0
 10
4.1652784525
 20
4.162944029
 10
4.1652784525
 20
5.009005793
  0
LWPOLYLINE
  5
125
100
AcDbEntity
  8
C00-00-00-BLACK
  6
ByLayer
 62
  256
370
   -1
100
AcDbPolyline
 90
    2
 70
    0
 43
0
 10
104.332054753
 20
2.679584657
 10
5.645969912
 20
2.679584657
  0
LWPOLYLINE
  5
126
100
AcDbEntity
  8
C00-00-00-BLACK
  6
ByLayer
 62
  256
370
   -1
100
AcDbPolyline
 90
    2
 70
    0
 43
0
 10
105.882778916
 20
5.009005793
 10
105.882778916
 20
4.232309755
  0
LWPOLYLINE
  5
127
100
AcDbEntity
  8
C00-00-00-BLACK
  6
ByLayer
 62
  256
370
   -1
100
AcDbPolyline
 90
    9
 70
    0
 43
0
 10
110.048057369
 20
9.1726168
 10
109.271027842
 20
9.034885815999999
 10
108.42396561
 20
8.823120257999999
 10
107.716968787
 20
8.468954868000001
 10
107.083339559
 20
7.973723603
 10
106.586440849
 20
7.270061671
 10
106.232942437
 20
6.636098953
 10
105.95281162
 20
5.785368342
 10
105.882778916
 20
5.009005793
  0
LWPOLYLINE
  5
128
100
AcDbEntity
  8
C00-00-00-BLACK
  6
ByLayer
 62
  256
370
   -1
100
AcDbPolyline
 90
    2
 70
    0
 43
0
 10
110.825086896
 20
9.1726168
 10
110.048057369
 20
9.1726168
  0
LWPOLYLINE
  5
129
100
AcDbEntity
  8
C00-00-00-BLACK
  6
ByLayer
 62
  256
370
   -1
100
AcDbPolyline
 90
    2
 70
    0
 43
0
 10
112.302443465
 20
109.338726122
 10
112.302443465
 20
10.657310129
  0
LWPOLYLINE
  5
12A
100
AcDbEntity
  8
C00-00-00-BLACK
  6
ByLayer
 62
  256
370
   -1
100
AcDbPolyline
 90
    2
 70
    0
 43
0
 10
110.048057369
 20
110.822418984
 10
110.825086896
 20
110.822418984
  0
LWPOLYLINE
  5
12B
100
AcDbEntity
  8
C00-00-00-BLACK
  6
ByLayer
 62
  256
370
   -1
100
AcDbPolyline
 90
    9
 70
    0
 43
0
 10
105.882778916
 20
115.055395717
 10
105.95281162
 20
114.209333953
 10
106.232942437
 20
113.432971404
 10
106.586440849
 20
112.656275365
 10
107.083339559
 20
112.091678374
 10
107.716968787
 20
111.525747427
 10
108.42396561
 20
111.103550267
 10
109.271027842
 20
110.89178471
 10
110.048057369
 20
110.822418984
  0
LWPOLYLINE
  5
12C
100
AcDbEntity
  8
C00-00-00-BLACK
  6
ByLayer
 62
  256
370
   -1
100
AcDbPolyline
 90
    2
 70
    0
 43
0
 10
105.882778916
 20
115.763393007
 10
105.882778916
 20
115.055395717
  0
LWPOLYLINE
  5
12D
100
AcDbEntity
  8
C00-00-00-BLACK
  6
ByLayer
 62
  256
370
   -1
100
AcDbPolyline
 90
    2
 70
    0
 43
0
 10
5.645969912
 20
117.247085868
 10
104.332054753
 20
117.247085868
  0
LWPOLYLINE
  5
12E
100
AcDbEntity
  8
C00-00-00-BLACK
  6
ByLayer
 62
  256
370
   -1
100
AcDbPolyline
 90
    2
 70
    0
 43
0
 10
4.2353111567
 20
115.055395717
 10
4.2353111567
 20
115.763393007
  0
LWPOLYLINE
  5
12F
100
AcDbEntity
  8
C00-00-00-BLACK
  6
ByLayer
 62
  256
370
   -1
100
AcDbPolyline
 90
    9
 70
    0
 43
0
 10
0
 20
110.822418984
 10
0.8470622313
 20
110.89178471
 10
1.6240917585
 20
111.103550267
 10
2.4011212857
 20
111.525747427
 10
2.9647178097
 20
112.091678374
 10
3.4582816295
 20
112.656275365
 10
3.8784778545
 20
113.432971404
 10
4.1652784525
 20
114.209333953
 10
4.2353111567
 20
115.055395717
  0
LWPOLYLINE
  5
130
100
AcDbEntity
  8
C00-00-00-BLACK
  6
ByLayer
 62
  256
370
   -1
100
AcDbPolyline
 90
    2
 70
    0
 43
0
 10
-0.77369463647
 20
110.822418984
 10
0
 20
110.822418984
  0
LWPOLYLINE
  5
131
100
AcDbEntity
  8
C00-00-00-BLACK
  6
ByLayer
 62
  256
370
   -1
100
AcDbPolyline
 90
    2
 70
    0
 43
0
 10
-2.26105587731
 20
10.657310129
 10
-2.26105587731
 20
109.338726122
  0
LWPOLYLINE
  5
132
100
AcDbEntity
  8
C00-00-00-BLACK
  6
ByLayer
 62
  256
370
   -1
100
AcDbPolyline
 90
    2
 70
    0
 43
0
 10
0
 20
9.1726168
 10
-0.77369463647
 20
9.1726168
  0
LWPOLYLINE
  5
133
100
AcDbEntity
  8
C00-00-00-BLACK
  6
ByLayer
 62
  256
370
   -1
100
AcDbPolyline
 90
    9
 70
    0
 43
0
 10
4.2353111567
 20
5.009005793
 10
4.1652784525
 20
5.785368342
 10
3.8784778545
 20
6.636098953
 10
3.4582816295
 20
7.270061671
 10
2.9647178097
 20
7.973723603
 10
2.4011212857
 20
8.468954868000001
 10
1.6240917585
 20
8.823120257999999
 10
0.8470622313
 20
9.034885815999999
 10
0
 20
9.1726168
  0
LWPOLYLINE
  5
134
100
AcDbEntity
  8
C00-00-00-BLACK
  6
ByLayer
 62
  256
370
   -1
100
AcDbPolyline
 90
    2
 70
    0
 43
0
 10
-2.26105587731
 20
10.587944403
 10
-2.26105587731
 20
109.338726122
  0
LWPOLYLINE
  5
135
100
AcDbEntity
  8
C00-00-00-BLACK
  6
ByLayer
 62
  256
370
   -1
100
AcDbPolyline
 90
    2
 70
    0
 43
0
 10
104.46878527
 20
2.610218931
 10
5.645969912
 20
2.610218931
  0
LWPOLYLINE
  5
136
100
AcDbEntity
  8
C00-00-00-BLACK
  6
ByLayer
 62
  256
370
   -1
100
AcDbPolyline
 90
    2
 70
    0
 43
0
 10
112.302443465
 20
109.338726122
 10
112.302443465
 20
10.587944403
  0
LWPOLYLINE
  5
137
100
AcDbEntity
  8
C00-00-00-BLACK
  6
ByLayer
 62
  256
370
   -1
100
AcDbPolyline
 90
    2
 70
    0
 43
0
 10
5.645969912
 20
117.316451594
 10
104.46878527
 20
117.316451594
  0
LWPOLYLINE
  5
138
100
AcDbEntity
  8
C00-00-00-BLACK
  6
ByLayer
 62
  256
370
   -1
100
AcDbPolyline
 90
    2
 70
    0
 43
0
 10
105.882778916
 20
5.009005793
 10
105.882778916
 20
4.162944029
  0
LWPOLYLINE
  5
139
100
AcDbEntity
  8
C00-00-00-BLACK
  6
ByLayer
 62
  256
370
   -1
100
AcDbPolyline
 90
   10
 70
    0
 43
0
 10
4.1652784525
 20
5.009005793
 10
4.0952457483
 20
5.785368342
 10
3.811780041
 20
6.493699122
 10
3.4582816295
 20
7.270061671
 10
2.9647178097
 20
7.904357877
 10
2.2577209867
 20
8.400589609000001
 10
1.6240917585
 20
8.823120257999999
 10
0.8470622313
 20
9.034885815999999
 10
0
 20
9.1726168
 10
-0.77369463647
 20
9.1726168
  0
LWPOLYLINE
  5
13A
100
AcDbEntity
  8
C00-00-00-BLACK
  6
ByLayer
 62
  256
370
   -1
100
AcDbPolyline
 90
   11
 70
    0
 43
0
 10
-0.77369463647
 20
110.89178471
 10
0
 20
110.89178471
 10
0.8470622313
 20
110.965819283
 10
1.6240917585
 20
111.245950099
 10
2.2577209867
 20
111.525747427
 10
2.9647178097
 20
112.091678374
 10
3.4582816295
 20
112.730643428
 10
3.811780041
 20
113.432971404
 10
4.0952457483
 20
114.209333953
 10
4.1652784525
 20
115.055395717
 10
4.1652784525
 20
115.763393007
  0
LWPOLYLINE
  5
13B
100
AcDbEntity
  8
C00-00-00-BLACK
  6
ByLayer
 62
  256
370
   -1
100
AcDbPolyline
 90
   11
 70
    0
 43
0
 10
105.882778916
 20
115.763393007
 10
105.882778916
 20
115.055395717
 10
105.95281162
 20
114.209333953
 10
106.232942437
 20
113.432971404
 10
106.659808443
 20
112.730643428
 10
107.153372263
 20
112.091678374
 10
107.716968787
 20
111.525747427
 10
108.493998314
 20
111.245950099
 10
109.271027842
 20
110.965819283
 10
110.048057369
 20
110.89178471
 10
110.891784709
 20
110.89178471
  0
LWPOLYLINE
  5
13C
100
AcDbEntity
  8
C00-00-00-BLACK
  6
ByLayer
 62
  256
370
   -1
100
AcDbPolyline
 90
   10
 70
    0
 43
0
 10
110.891784709
 20
9.1726168
 10
110.048057369
 20
9.1726168
 10
109.271027842
 20
9.034885815999999
 10
108.493998314
 20
8.823120257999999
 10
107.716968787
 20
8.400589609000001
 10
107.153372263
 20
7.904357877
 10
106.659808443
 20
7.270061671
 10
106.232942437
 20
6.493699122
 10
105.95281162
 20
5.785368342
 10
105.882778916
 20
5.009005793
  0
LWPOLYLINE
  5
13D
100
AcDbEntity
  8
C00-00-00-BLACK
  6
ByLayer
 62
  256
370
   -1
100
AcDbPolyline
 90
   36
 70
    0
 43
0
 10
0
 20
120.00003812
 10
-0.91709493548
 20
119.927004014
 10
-1.9742552793
 20
119.577507471
 10
-2.82465240131
 20
119.150641465
 10
-3.52831433363
 20
118.584710518
 10
-4.16861334314
 20
117.813016816
 10
-4.58880956813
 20
116.894254435
 10
-4.94230797963
 20
115.974158098
 10
-5.0123406838
 20
115.055395717
 10
-5.0123406838
 20
5.009005793
 10
-4.94230797963
 20
3.952512428
 10
-4.58880956813
 20
3.032416091
 10
-4.16861334314
 20
2.187688283
 10
-3.52831433363
 20
1.410658755
 10
-2.82465240131
 20
0.845394786
 10
-1.9742552793
 20
0.349163054
 10
-0.91709493548
 20
0.068698748
 10
0
 20
0
 10
110.048057369
 20
0
 10
111.035185008
 20
0.068698748
 10
111.955614835
 20
0.349163054
 10
112.799342175
 20
0.845394786
 10
113.576371702
 20
1.410658755
 10
114.210000931
 20
2.187688283
 10
114.706899641
 20
3.032416091
 10
114.920332644
 20
3.952512428
 10
115.057063162
 20
5.009005793
 10
115.057063162
 20
115.055395717
 10
114.920332644
 20
115.974158098
 10
114.706899641
 20
116.894254435
 10
114.210000931
 20
117.813016816
 10
113.576371702
 20
118.584710518
 10
112.799342175
 20
119.150641465
 10
111.955614835
 20
119.577507471
 10
111.035185008
 20
119.927004014
 10
110.048057369
 20
120.00003812
  0
LWPOLYLINE
  5
13E
100
AcDbEntity
  8
C00-00-00-BLACK
  6
ByLayer
 62
  256
370
   -1
100
AcDbPolyline
 90
    2
 70
    0
 43
0
 10
110.048057369
 20
120.00003812
 10
0
 20
120.00003812
  0
LWPOLYLINE
  5
13F
100
AcDbEntity
  8
C00-00-00-BLACK
  6
ByLayer
 62
  256
370
   -1
100
AcDbPolyline
 90
    2
 70
    0
 43
0
 10
-0.2834657073
 20
4.728874977
 10
-0.2834657073
 20
5.574936741
  0
LWPOLYLINE
  5
140
100
AcDbEntity
  8
C00-00-00-BLACK
  6
ByLayer
 62
  256
370
   -1
100
AcDbPolyline
 90
    2
 70
    0
 43
0
 10
-0.2834657073
 20
6.35129929
 10
-0.2834657073
 20
8.400589609000001
  0
LWPOLYLINE
  5
141
100
AcDbEntity
  8
C00-00-00-BLACK
  6
ByLayer
 62
  256
370
   -1
100
AcDbPolyline
 90
    2
 70
    0
 43
0
 10
-0.2834657073
 20
4.728874977
 10
-0.2834657073
 20
3.878477855
  0
LWPOLYLINE
  5
142
100
AcDbEntity
  8
C00-00-00-BLACK
  6
ByLayer
 62
  256
370
   -1
100
AcDbPolyline
 90
    2
 70
    0
 43
0
 10
-0.2834657073
 20
3.032416091
 10
-0.2834657073
 20
0.987794618
  0
LWPOLYLINE
  5
143
100
AcDbEntity
  8
C00-00-00-BLACK
  6
ByLayer
 62
  256
370
   -1
100
AcDbPolyline
 90
    2
 70
    0
 43
0
 10
-0.2834657073
 20
4.728874977
 10
-1.13052793865
 20
4.728874977
  0
LWPOLYLINE
  5
144
100
AcDbEntity
  8
C00-00-00-BLACK
  6
ByLayer
 62
  256
370
   -1
100
AcDbPolyline
 90
    2
 70
    0
 43
0
 10
-1.9742552793
 20
4.728874977
 10
-3.88181274513
 20
4.728874977
  0
LWPOLYLINE
  5
145
100
AcDbEntity
  8
C00-00-00-BLACK
  6
ByLayer
 62
  256
370
   -1
100
AcDbPolyline
 90
    2
 70
    0
 43
0
 10
-0.2834657073
 20
4.728874977
 10
0.5669314147
 20
4.728874977
  0
LWPOLYLINE
  5
146
100
AcDbEntity
  8
C00-00-00-BLACK
  6
ByLayer
 62
  256
370
   -1
100
AcDbPolyline
 90
    2
 70
    0
 43
0
 10
1.4106587553
 20
4.728874977
 10
3.3882489253
 20
4.728874977
  0
LWPOLYLINE
  5
147
100
AcDbEntity
  8
C00-00-00-BLACK
  6
ByLayer
 62
  256
370
   -1
100
AcDbPolyline
 90
    2
 70
    0
 43
0
 10
110.258155481
 20
115.271830122
 10
110.258155481
 20
116.116557929
  0
LWPOLYLINE
  5
148
100
AcDbEntity
  8
C00-00-00-BLACK
  6
ByLayer
 62
  256
370
   -1
100
AcDbPolyline
 90
    2
 70
    0
 43
0
 10
110.258155481
 20
116.962286204
 10
110.258155481
 20
118.938875907
  0
LWPOLYLINE
  5
149
100
AcDbEntity
  8
C00-00-00-BLACK
  6
ByLayer
 62
  256
370
   -1
100
AcDbPolyline
 90
    2
 70
    0
 43
0
 10
110.258155481
 20
115.271830122
 10
110.258155481
 20
114.42109951
  0
LWPOLYLINE
  5
14A
100
AcDbEntity
  8
C00-00-00-BLACK
  6
ByLayer
 62
  256
370
   -1
100
AcDbPolyline
 90
    2
 70
    0
 43
0
 10
110.258155481
 20
113.575371235
 10
110.258155481
 20
111.668147259
  0
LWPOLYLINE
  5
14B
100
AcDbEntity
  8
C00-00-00-BLACK
  6
ByLayer
 62
  256
370
   -1
100
AcDbPolyline
 90
    2
 70
    0
 43
0
 10
110.258155481
 20
115.271830122
 10
109.414428141
 20
115.271830122
  0
LWPOLYLINE
  5
14C
100
AcDbEntity
  8
C00-00-00-BLACK
  6
ByLayer
 62
  256
370
   -1
100
AcDbPolyline
 90
    2
 70
    0
 43
0
 10
108.707431318
 20
115.271830122
 10
106.659808443
 20
115.271830122
  0
LWPOLYLINE
  5
14D
100
AcDbEntity
  8
C00-00-00-BLACK
  6
ByLayer
 62
  256
370
   -1
100
AcDbPolyline
 90
    2
 70
    0
 43
0
 10
110.258155481
 20
115.271830122
 10
111.105217713
 20
115.271830122
  0
LWPOLYLINE
  5
14E
100
AcDbEntity
  8
C00-00-00-BLACK
  6
ByLayer
 62
  256
370
   -1
100
AcDbPolyline
 90
    2
 70
    0
 43
0
 10
111.955614835
 20
115.271830122
 10
113.999902818
 20
115.271830122
  0
LWPOLYLINE
  5
14F
100
AcDbEntity
  8
C00-00-00-BLACK
  6
ByLayer
 62
  256
370
   -1
100
AcDbPolyline
 90
    2
 70
    0
 43
0
 10
110.258155481
 20
4.728874977
 10
110.258155481
 20
5.574936741
  0
LWPOLYLINE
  5
150
100
AcDbEntity
  8
C00-00-00-BLACK
  6
ByLayer
 62
  256
370
   -1
100
AcDbPolyline
 90
    2
 70
    0
 43
0
 10
110.258155481
 20
6.35129929
 10
110.258155481
 20
8.400589609000001
  0
LWPOLYLINE
  5
151
100
AcDbEntity
  8
C00-00-00-BLACK
  6
ByLayer
 62
  256
370
   -1
100
AcDbPolyline
 90
    2
 70
    0
 43
0
 10
110.258155481
 20
4.728874977
 10
110.258155481
 20
3.878477855
  0
LWPOLYLINE
  5
152
100
AcDbEntity
  8
C00-00-00-BLACK
  6
ByLayer
 62
  256
370
   -1
100
AcDbPolyline
 90
    2
 70
    0
 43
0
 10
110.258155481
 20
3.032416091
 10
110.258155481
 20
0.987794618
  0
LWPOLYLINE
  5
153
100
AcDbEntity
  8
C00-00-00-BLACK
  6
ByLayer
 62
  256
370
   -1
100
AcDbPolyline
 90
    2
 70
    0
 43
0
 10
110.258155481
 20
4.728874977
 10
109.414428141
 20
4.728874977
  0
LWPOLYLINE
  5
154
100
AcDbEntity
  8
C00-00-00-BLACK
  6
ByLayer
 62
  256
370
   -1
100
AcDbPolyline
 90
    2
 70
    0
 43
0
 10
108.707431318
 20
4.728874977
 10
106.659808443
 20
4.728874977
  0
LWPOLYLINE
  5
155
100
AcDbEntity
  8
C00-00-00-BLACK
  6
ByLayer
 62
  256
370
   -1
100
AcDbPolyline
 90
    2
 70
    0
 43
0
 10
110.258155481
 20
4.728874977
 10
111.105217713
 20
4.728874977
  0
LWPOLYLINE
  5
156
100
AcDbEntity
  8
C00-00-00-BLACK
  6
ByLayer
 62
  256
370
   -1
100
AcDbPolyline
 90
    2
 70
    0
 43
0
 10
111.955614835
 20
4.728874977
 10
113.999902818
 20
4.728874977
  0
LWPOLYLINE
  5
157
100
AcDbEntity
  8
C00-00-00-BLACK
  6
ByLayer
 62
  256
370
   -1
100
AcDbPolyline
 90
    2
 70
    0
 43
0
 10
-0.2834657073
 20
115.271830122
 10
-0.2834657073
 20
116.116557929
  0
LWPOLYLINE
  5
158
100
AcDbEntity
  8
C00-00-00-BLACK
  6
ByLayer
 62
  256
370
   -1
100
AcDbPolyline
 90
    2
 70
    0
 43
0
 10
-0.2834657073
 20
116.962286204
 10
-0.2834657073
 20
118.938875907
  0
LWPOLYLINE
  5
159
100
AcDbEntity
  8
C00-00-00-BLACK
  6
ByLayer
 62
  256
370
   -1
100
AcDbPolyline
 90
    2
 70
    0
 43
0
 10
-0.2834657073
 20
115.271830122
 10
-0.2834657073
 20
114.42109951
  0
LWPOLYLINE
  5
15A
100
AcDbEntity
  8
C00-00-00-BLACK
  6
ByLayer
 62
  256
370
   -1
100
AcDbPolyline
 90
    2
 70
    0
 43
0
 10
-0.2834657073
 20
113.575371235
 10
-0.2834657073
 20
111.668147259
  0
LWPOLYLINE
  5
15B
100
AcDbEntity
  8
C00-00-00-BLACK
  6
ByLayer
 62
  256
370
   -1
100
AcDbPolyline
 90
    2
 70
    0
 43
0
 10
-0.2834657073
 20
115.271830122
 10
-1.13052793865
 20
115.271830122
  0
LWPOLYLINE
  5
15C
100
AcDbEntity
  8
C00-00-00-BLACK
  6
ByLayer
 62
  256
370
   -1
100
AcDbPolyline
 90
    2
 70
    0
 43
0
 10
-1.9742552793
 20
115.271830122
 10
-3.88181274513
 20
115.271830122
  0
LWPOLYLINE
  5
15D
100
AcDbEntity
  8
C00-00-00-BLACK
  6
ByLayer
 62
  256
370
   -1
100
AcDbPolyline
 90
    2
 70
    0
 43
0
 10
-0.2834657073
 20
115.271830122
 10
0.5669314147
 20
115.271830122
  0
LWPOLYLINE
  5
15E
100
AcDbEntity
  8
C00-00-00-BLACK
  6
ByLayer
 62
  256
370
   -1
100
AcDbPolyline
 90
    2
 70
    0
 43
0
 10
1.4106587553
 20
115.271830122
 10
3.3882489253
 20
115.271830122
  0
ENDBLK
  5
60
330
5E
100
AcDbEntity
  8
0
100
AcDbBlockEnd
  0
BLOCK
  5
62
330
61
100
AcDbEntity
  8
0
100
AcDbBlockBegin
  2
Umrandung
 70
    0
 10
0
 20
0
  3
Umrandung
  1

  0
ARC
  5
15F
100
AcDbEntity
  8
Visible (ANSI)
  6
ByLayer
 62
  256
370
   -1
100
AcDbCircle
 10
110
 20
115
 40
5
100
AcDbArc
 50
0
 51
90
  0
LINE
  5
160
100
AcDbEntity
  8
Visible (ANSI)
  6
ByLayer
 62
  256
370
   -1
100
AcDbLine
 10
110
 20
120
 11
0
 21
120
  0
ARC
  5
161
100
AcDbEntity
  8
Visible (ANSI)
  6
ByLayer
 62
  256
370
   -1
100
AcDbCircle
 10
0
 20
115
 40
5
100
AcDbArc
 50
90
 51
180
  0
LINE
  5
162
100
AcDbEntity
  8
Visible (ANSI)
  6
ByLayer
 62
  256
370
   -1
100
AcDbLine
 10
-5
 20
115
 11
-5
 21
5
  0
ARC
  5
163
100
AcDbEntity
  8
Visible (ANSI)
  6
ByLayer
 62
  256
370
   -1
100
AcDbCircle
 10
0
 20
5
 40
5
100
AcDbArc
 50
180
 51
270
  0
LINE
  5
164
100
AcDbEntity
  8
Visible (ANSI)
  6
ByLayer
 62
  256
370
   -1
100
AcDbLine
 10
0
 20
0
 11
110
 21
0
  0
ARC
  5
165
100
AcDbEntity
  8
Visible (ANSI)
  6
ByLayer
 62
  256
370
   -1
100
AcDbCircle
 10
110
 20
5
 40
5
100
AcDbArc
 50
270
 51
0
  0
LINE
  5
166
100
AcDbEntity
  8
Visible (ANSI)
  6
ByLayer
 62
  256
370
   -1
100
AcDbLine
 10
115
 20
5
 11
115
 21
115
  0
ENDBLK
  5
63
330
61
100
AcDbEntity
  8
0
100
AcDbBlockEnd
  0
BLOCK
  5
65
330
64
100
AcDbEntity
  8
0
100
AcDbBlockBegin
  2
Quadrat
 70
    0
 10
0
 20
0
  3
Quadrat
  1

  0
LINE
  5
167
100
AcDbEntity
  8
0
  6
ByLayer
 62
  256
370
   -1
100
AcDbLine
 10
0
 20
0
 11
1.137e-13
 21
15.767
  0
LINE
  5
168
100
AcDbEntity
  8
0
  6
ByLayer
 62
  256
370
   -1
100
AcDbLine
 10
0
 20
0
 11
15.767
 21
0
  0
LINE
  5
169
100
AcDbEntity
  8
0
  6
ByLayer
 62
  256
370
   -1
100
AcDbLine
 10
0
 20
15.767
 11
15.767
 21
15.767
  0
LINE
  5
16A
100
AcDbEntity
  8
0
  6
ByLayer
 62
  256
370
   -1
100
AcDbLine
 10
15.767
 20
0
 11
15.767
 21
15.767
  0
ENDBLK
  5
66
330
64
100
AcDbEntity
  8
0
100
AcDbBlockEnd
  0
BLOCK
  5
68
330
67
100
AcDbEntity
  8
0
100
AcDbBlockBegin
  2
Lid
 70
    0
 10
0
 20
0
  3
Lid
  1

  0
ARC
  5
16B
100
AcDbEntity
  8
Visible (ANSI)
  6
ByLayer
 62
  256
370
   -1
100
AcDbCircle
 10
-0.4
 20
4.6
 40
6
100
AcDbArc
 50
0
 51
90
  0
LINE
  5
16C
100
AcDbEntity
  8
Visible (ANSI)
  6
ByLayer
 62
  256
370
   -1
100
AcDbLine
 10
-0.9
 20
11.0998713047
 11
-0.9
 21
108.900128695
  0
ARC
  5
16D
100
AcDbEntity
  8
Visible (ANSI)
  6
ByLayer
 62
  256
370
   -1
100
AcDbCircle
 10
-0.4
 20
115.4
 40
6
100
AcDbArc
 50
270
 51
0
  0
LINE
  5
16E
100
AcDbEntity
  8
Visible (ANSI)
  6
ByLayer
 62
  256
370
   -1
100
AcDbLine
 10
6.09987130466
 20
115.9
 11
103.900128695
 21
115.9
  0
LINE
  5
16F
100
AcDbEntity
  8
Visible (ANSI)
  6
ByLayer
 62
  256
370
   -1
100
AcDbLine
 10
110.9
 20
108.900128695
 11
110.9
 21
11.0998713047
  0
LINE
  5
170
100
AcDbEntity
  8
Visible (ANSI)
  6
ByLayer
 62
  256
370
   -1
100
AcDbLine
 10
103.900128695
 20
4.1
 11
6.09987130466
 21
4.1
  0
LINE
  5
171
100
AcDbEntity
  8
Visible (ANSI)
  6
ByLayer
 62
  256
370
   -1
100
AcDbLine
 10
5.6
 20
115.4
 11
5.6
 21
115.400128695
  0
LINE
  5
172
100
AcDbEntity
  8
Visible (ANSI)
  6
ByLayer
 62
  256
370
   -1
100
AcDbLine
 10
-0.4
 20
10.6
 11
-0.400128695338
 21
10.6
  0
LINE
  5
173
100
AcDbEntity
  8
Visible (ANSI)
  6
ByLayer
 62
  256
370
   -1
100
AcDbLine
 10
-0.400128695338
 20
109.4
 11
-0.4
 21
109.4
  0
LINE
  5
174
100
AcDbEntity
  8
Visible (ANSI)
  6
ByLayer
 62
  256
370
   -1
100
AcDbLine
 10
5.6
 20
4.59987130466
 11
5.6
 21
4.6
  0
LINE
  5
175
100
AcDbEntity
  8
Visible (ANSI)
  6
ByLayer
 62
  256
370
   -1
100
AcDbLine
 10
104.4
 20
4.6
 11
104.4
 21
4.59987130466
  0
ARC
  5
176
100
AcDbEntity
  8
Visible (ANSI)
  6
ByLayer
 62
  256
370
   -1
100
AcDbCircle
 10
110.4
 20
4.6
 40
6
100
AcDbArc
 50
90
 51
180
  0
LINE
  5
177
100
AcDbEntity
  8
Visible (ANSI)
  6
ByLayer
 62
  256
370
   -1
100
AcDbLine
 10
110.400128695
 20
10.6
 11
110.4
 21
10.6
  0
LINE
  5
178
100
AcDbEntity
  8
Visible (ANSI)
  6
ByLayer
 62
  256
370
   -1
100
AcDbLine
 10
110.4
 20
109.4
 11
110.400128695
 21
109.4
  0
ARC
  5
179
100
AcDbEntity
  8
Visible (ANSI)
  6
ByLayer
 62
  256
370
   -1
100
AcDbCircle
 10
110.4
 20
115.4
 40
6
100
AcDbArc
 50
180
 51
270
  0
LINE
  5
17A
100
AcDbEntity
  8
Visible (ANSI)
  6
ByLayer
 62
  256
370
   -1
100
AcDbLine
 10
104.4
 20
115.400128695
 11
104.4
 21
115.4
  0
ELLIPSE
  5
17B
100
AcDbEntity
  8
Visible (ANSI)
  6
ByLayer
 62
  256
370
   -1
100
AcDbEllipse
 10
110.399871272
 20
11.1001287285
 30
0
 11
0.353735416722
 21
-0.353735416722
 31
0
 40
0.999485417293
 41
5.49804450135
 42
7.06832611301
  0
ELLIPSE
  5
17C
100
AcDbEntity
  8
Visible (ANSI)
  6
ByLayer
 62
  256
370
   -1
100
AcDbEllipse
 10
103.899871272
 20
4.60012872847
 30
0
 11
0.353735416722
 21
-0.353735416722
 31
0
 40
0.999485417293
 41
5.49804450135
 42
7.06832611301
  0
ELLIPSE
  5
17D
100
AcDbEntity
  8
Visible (ANSI)
  6
ByLayer
 62
  256
370
   -1
100
AcDbEllipse
 10
110.399871272
 20
108.899871272
 30
0
 11
0.353735416722
 21
0.353735416722
 31
0
 40
0.999485417293
 41
5.49804450135
 42
7.06832611301
  0
ELLIPSE
  5
17E
100
AcDbEntity
  8
Visible (ANSI)
  6
ByLayer
 62
  256
370
   -1
100
AcDbEllipse
 10
103.899871272
 20
115.399871272
 30
0
 11
0.353735416722
 21
0.353735416722
 31
0
 40
0.999485417293
 41
5.49804450135
 42
7.06832611301
  0
ELLIPSE
  5
17F
100
AcDbEntity
  8
Visible (ANSI)
  6
ByLayer
 62
  256
370
   -1
100
AcDbEllipse
 10
6.10012872847
 20
115.399871272
 30
0
 11
-0.353735416722
 21
0.353735416722
 31
0
 40
0.999485417293
 41
5.49804450135
 42
7.06832611301
  0
ELLIPSE
  5
180
100
AcDbEntity
  8
Visible (ANSI)
  6
ByLayer
 62
  256
370
   -1
100
AcDbEllipse
 10
-0.399871271528
 20
108.899871272
 30
0
 11
-0.353735416722
 21
0.353735416722
 31
0
 40
0.999485417293
 41
5.49804450135
 42
7.06832611301
  0
ELLIPSE
  5
181
100
AcDbEntity
  8
Visible (ANSI)
  6
ByLayer
 62
  256
370
   -1
100
AcDbEllipse
 10
-0.399871271528
 20
11.1001287285
 30
0
 11
-0.353735416722
 21
-0.353735416722
 31
0
 40
0.999485417293
 41
5.49804450135
 42
7.06832611301
  0
ELLIPSE
  5
182
100
AcDbEntity
  8
Visible (ANSI)
  6
ByLayer
 62
  256
370
   -1
100
AcDbEllipse
 10
6.10012872847
 20
4.60012872847
 30
0
 11
-0.353735416722
 21
-0.353735416722
 31
0
 40
0.999485417293
 41
5.49804450135
 42
7.06832611301
  0
CIRCLE
  5
183
100
AcDbEntity
  8
Visible (ANSI)
  6
ByLayer
 62
  256
370
   -1
100
AcDbCircle
 10
-0.25
 20
115.25
 40
2
  0
CIRCLE
  5
184
100
AcDbEntity
  8
Visible (ANSI)
  6
ByLayer
 62
  256
370
   -1
100
AcDbCircle
 10
110.25
 20
4.75
 40
2
  0
CIRCLE
  5
185
100
AcDbEntity
  8
Visible (ANSI)
  6
ByLayer
 62
  256
370
   -1
100
AcDbCircle
 10
-0.25
 20
4.75
 40
2
  0
CIRCLE
  5
186
100
AcDbEntity
  8
Visible (ANSI)
  6
ByLayer
 62
  256
370
   -1
100
AcDbCircle
 10
110.25
 20
115.25
 40
2
  0
ELLIPSE
  5
187
100
AcDbEntity
  8
Visible (ANSI)
  6
ByLayer
 62
  256
370
   -1
100
AcDbEllipse
 10
-0.7542274625349999
 20
109.304227465
 30
0
 11
-1.06120625016
 21
1.06120625016
 31
0
 40
0.999485417293
 41
5.49804450135
 42
7.06832611301
  0
ELLIPSE
  5
188
100
AcDbEntity
  8
Visible (ANSI)
  6
ByLayer
 62
  256
370
   -1
100
AcDbEllipse
 10
-0.799613811704
 20
109.349613815
 30
0
 11
-1.06120625016
 21
1.06120625016
 31
0
 40
0.999485417293
 41
5.49804450135
 42
7.06832611301
  0
ELLIPSE
  5
189
100
AcDbEntity
  8
Visible (ANSI)
  6
ByLayer
 62
  256
370
   -1
100
AcDbEllipse
 10
-0.7542274625349999
 20
10.6957725346
 30
0
 11
-1.06120625016
 21
-1.06120625016
 31
0
 40
0.999485417293
 41
5.49804450135
 42
7.06832611301
  0
ELLIPSE
  5
18A
100
AcDbEntity
  8
Visible (ANSI)
  6
ByLayer
 62
  256
370
   -1
100
AcDbEllipse
 10
5.69577253459
 20
4.24577252675
 30
0
 11
-1.06120625016
 21
-1.06120625016
 31
0
 40
0.999485417293
 41
5.49804450135
 42
7.06832611301
  0
ELLIPSE
  5
18B
100
AcDbEntity
  8
Visible (ANSI)
  6
ByLayer
 62
  256
370
   -1
100
AcDbEllipse
 10
104.304227465
 20
4.24577252675
 30
0
 11
1.06120625016
 21
-1.06120625016
 31
0
 40
0.999485417293
 41
5.49804450135
 42
7.06832611301
  0
ELLIPSE
  5
18C
100
AcDbEntity
  8
Visible (ANSI)
  6
ByLayer
 62
  256
370
   -1
100
AcDbEllipse
 10
110.754227468
 20
10.6957725346
 30
0
 11
1.06120625016
 21
-1.06120625016
 31
0
 40
0.999485417293
 41
5.49804450135
 42
7.06832611301
  0
ELLIPSE
  5
18D
100
AcDbEntity
  8
Visible (ANSI)
  6
ByLayer
 62
  256
370
   -1
100
AcDbEllipse
 10
110.754227468
 20
109.304227465
 30
0
 11
1.06120625016
 21
1.06120625016
 31
0
 40
0.999485417293
 41
5.49804450135
 42
7.06832611301
  0
ELLIPSE
  5
18E
100
AcDbEntity
  8
Visible (ANSI)
  6
ByLayer
 62
  256
370
   -1
100
AcDbEllipse
 10
104.304227465
 20
115.754227458
 30
0
 11
1.06120625016
 21
1.06120625016
 31
0
 40
0.999485417293
 41
5.49804450135
 42
7.06832611301
  0
ELLIPSE
  5
18F
100
AcDbEntity
  8
Visible (ANSI)
  6
ByLayer
 62
  256
370
   -1
100
AcDbEllipse
 10
5.69577253459
 20
115.754227458
 30
0
 11
-1.06120625016
 21
1.06120625016
 31
0
 40
0.999485417293
 41
5.49804450135
 42
7.06832611301
  0
ELLIPSE
  5
190
100
AcDbEntity
  8
Visible (ANSI)
  6
ByLayer
 62
  256
370
   -1
100
AcDbEllipse
 10
5.65038618542
 20
115.799613807
 30
0
 11
-1.06120625016
 21
1.06120625016
 31
0
 40
0.999485417293
 41
5.49804450135
 42
7.06832611301
  0
ELLIPSE
  5
191
100
AcDbEntity
  8
Visible (ANSI)
  6
ByLayer
 62
  256
370
   -1
100
AcDbEllipse
 10
-0.799613811704
 20
10.6503861854
 30
0
 11
-1.06120625016
 21
-1.06120625016
 31
0
 40
0.999485417293
 41
5.49804450135
 42
7.06832611301
  0
ELLIPSE
  5
192
100
AcDbEntity
  8
Visible (ANSI)
  6
ByLayer
 62
  256
370
   -1
100
AcDbEllipse
 10
5.65038618542
 20
4.20038617758
 30
0
 11
-1.06120625016
 21
-1.06120625016
 31
0
 40
0.999485417293
 41
5.49804450135
 42
7.06832611301
  0
ELLIPSE
  5
193
100
AcDbEntity
  8
Visible (ANSI)
  6
ByLayer
 62
  256
370
   -1
100
AcDbEllipse
 10
104.349613815
 20
4.20038617758
 30
0
 11
1.06120625016
 21
-1.06120625016
 31
0
 40
0.999485417293
 41
5.49804450135
 42
7.06832611301
  0
ELLIPSE
  5
194
100
AcDbEntity
  8
Visible (ANSI)
  6
ByLayer
 62
  256
370
   -1
100
AcDbEllipse
 10
110.799613817
 20
10.6503861854
 30
0
 11
1.06120625016
 21
-1.06120625016
 31
0
 40
0.999485417293
 41
5.49804450135
 42
7.06832611301
  0
ELLIPSE
  5
195
100
AcDbEntity
  8
Visible (ANSI)
  6
ByLayer
 62
  256
370
   -1
100
AcDbEllipse
 10
110.799613817
 20
109.349613815
 30
0
 11
1.06120625016
 21
1.06120625016
 31
0
 40
0.999485417293
 41
5.49804450135
 42
7.06832611301
  0
ELLIPSE
  5
196
100
AcDbEntity
  8
Visible (ANSI)
  6
ByLayer
 62
  256
370
   -1
100
AcDbEllipse
 10
104.349613815
 20
115.799613807
 30
0
 11
1.06120625016
 21
1.06120625016
 31
0
 40
0.999485417293
 41
5.49804450135
 42
7.06832611301
  0
LINE
  5
197
100
AcDbEntity
  8
Visible (ANSI)
  6
ByLayer
 62
  256
370
   -1
100
AcDbLine
 10
-0.754999733968
 20
110.804613651
 11
0
 21
110.804613651
  0
LINE
  5
198
100
AcDbEntity
  8
Visible (ANSI)
  6
ByLayer
 62
  256
370
   -1
100
AcDbLine
 10
-0.800386083137
 20
110.85
 11
0
 21
110.85
  0
LINE
  5
199
100
AcDbEntity
  8
Visible (ANSI)
  6
ByLayer
 62
  256
370
   -1
100
AcDbLine
 10
-2.25461364795
 20
10.6950002632
 11
-2.25461364795
 21
109.304999737
  0
LINE
  5
19A
100
AcDbEntity
  8
Visible (ANSI)
  6
ByLayer
 62
  256
370
   -1
100
AcDbLine
 10
-6.21162144e-08
 20
9.195386349170001
 11
-0.754999733968
 21
9.195386349170001
  0
ARC
  5
19B
100
AcDbEntity
  8
Visible (ANSI)
  6
ByLayer
 62
  256
370
   -1
100
AcDbCircle
 10
0
 20
5
 40
4.19538634917
100
AcDbArc
 50
0
 51
90.0000008483
  0
LINE
  5
19C
100
AcDbEntity
  8
Visible (ANSI)
  6
ByLayer
 62
  256
370
   -1
100
AcDbLine
 10
4.19538634917
 20
4.24500025532
 11
4.19538634917
 21
4.99999992637
  0
LINE
  5
19D
100
AcDbEntity
  8
Visible (ANSI)
  6
ByLayer
 62
  256
370
   -1
100
AcDbLine
 10
104.304999737
 20
2.74538634133
 11
5.69500026315
 21
2.74538634133
  0
LINE
  5
19E
100
AcDbEntity
  8
Visible (ANSI)
  6
ByLayer
 62
  256
370
   -1
100
AcDbLine
 10
105.804613651
 20
4.99999992898
 11
105.804613651
 21
4.24500025532
  0
ARC
  5
19F
100
AcDbEntity
  8
Visible (ANSI)
  6
ByLayer
 62
  256
370
   -1
100
AcDbCircle
 10
110
 20
5
 40
4.19538634917
100
AcDbArc
 50
89.99999908789999
 51
180
  0
LINE
  5
1A0
100
AcDbEntity
  8
Visible (ANSI)
  6
ByLayer
 62
  256
370
   -1
100
AcDbLine
 10
110.75499974
 20
9.195386349170001
 11
110.000000067
 21
9.195386349170001
  0
LINE
  5
1A1
100
AcDbEntity
  8
Visible (ANSI)
  6
ByLayer
 62
  256
370
   -1
100
AcDbLine
 10
112.254613654
 20
109.304999737
 11
112.254613654
 21
10.6950002632
  0
LINE
  5
1A2
100
AcDbEntity
  8
Visible (ANSI)
  6
ByLayer
 62
  256
370
   -1
100
AcDbLine
 10
110.000000011
 20
110.804613651
 11
110.75499974
 21
110.804613651
  0
ARC
  5
1A3
100
AcDbEntity
  8
Visible (ANSI)
  6
ByLayer
 62
  256
370
   -1
100
AcDbCircle
 10
110
 20
115
 40
4.19538634917
100
AcDbArc
 50
180
 51
270.000000146
  0
LINE
  5
1A4
100
AcDbEntity
  8
Visible (ANSI)
  6
ByLayer
 62
  256
370
   -1
100
AcDbLine
 10
105.804613651
 20
115.754999729
 11
105.804613651
 21
115
  0
LINE
  5
1A5
100
AcDbEntity
  8
Visible (ANSI)
  6
ByLayer
 62
  256
370
   -1
100
AcDbLine
 10
5.69500026315
 20
117.254613643
 11
104.304999737
 21
117.254613643
  0
LINE
  5
1A6
100
AcDbEntity
  8
Visible (ANSI)
  6
ByLayer
 62
  256
370
   -1
100
AcDbLine
 10
4.19538634917
 20
114.999999995
 11
4.19538634917
 21
115.754999729
  0
ARC
  5
1A7
100
AcDbEntity
  8
Visible (ANSI)
  6
ByLayer
 62
  256
370
   -1
100
AcDbCircle
 10
0
 20
115
 40
4.19538634917
100
AcDbArc
 50
270
 51
0
  0
LINE
  5
1A8
100
AcDbEntity
  8
Visible (ANSI)
  6
ByLayer
 62
  256
370
   -1
100
AcDbLine
 10
5.64961391398
 20
117.299999992
 11
104.350386086
 21
117.299999992
  0
LINE
  5
1A9
100
AcDbEntity
  8
Visible (ANSI)
  6
ByLayer
 62
  256
370
   -1
100
AcDbLine
 10
-2.29999999712
 20
10.649613914
 11
-2.29999999712
 21
109.350386086
  0
LINE
  5
1AA
100
AcDbEntity
  8
Visible (ANSI)
  6
ByLayer
 62
  256
370
   -1
100
AcDbLine
 10
104.350386086
 20
2.69999999217
 11
5.64961391398
 21
2.69999999217
  0
LINE
  5
1AB
100
AcDbEntity
  8
Visible (ANSI)
  6
ByLayer
 62
  256
370
   -1
100
AcDbLine
 10
112.300000003
 20
109.350386086
 11
112.300000003
 21
10.649613914
  0
LINE
  5
1AC
100
AcDbEntity
  8
Visible (ANSI)
  6
ByLayer
 62
  256
370
   -1
100
AcDbLine
 10
-6.21162144e-08
 20
9.15
 11
-0.800386083137
 21
9.15
  0
ARC
  5
1AD
100
AcDbEntity
  8
Visible (ANSI)
  6
ByLayer
 62
  256
370
   -1
100
AcDbCircle
 10
0
 20
115
 40
4.15
100
AcDbArc
 50
270
 51
0
  0
LINE
  5
1AE
100
AcDbEntity
  8
Visible (ANSI)
  6
ByLayer
 62
  256
370
   -1
100
AcDbLine
 10
4.15
 20
114.999999995
 11
4.15
 21
115.800386078
  0
LINE
  5
1AF
100
AcDbEntity
  8
Visible (ANSI)
  6
ByLayer
 62
  256
370
   -1
100
AcDbLine
 10
105.85
 20
115.800386078
 11
105.85
 21
115
  0
ARC
  5
1B0
100
AcDbEntity
  8
Visible (ANSI)
  6
ByLayer
 62
  256
370
   -1
100
AcDbCircle
 10
110
 20
115
 40
4.15
100
AcDbArc
 50
180
 51
270.000000148
  0
LINE
  5
1B1
100
AcDbEntity
  8
Visible (ANSI)
  6
ByLayer
 62
  256
370
   -1
100
AcDbLine
 10
110.000000011
 20
110.85
 11
110.800386089
 21
110.85
  0
LINE
  5
1B2
100
AcDbEntity
  8
Visible (ANSI)
  6
ByLayer
 62
  256
370
   -1
100
AcDbLine
 10
110.800386089
 20
9.15
 11
110.000000066
 21
9.15
  0
ARC
  5
1B3
100
AcDbEntity
  8
Visible (ANSI)
  6
ByLayer
 62
  256
370
   -1
100
AcDbCircle
 10
110
 20
5
 40
4.15
100
AcDbArc
 50
89.99999908789999
 51
180.000000854
  0
LINE
  5
1B4
100
AcDbEntity
  8
Visible (ANSI)
  6
ByLayer
 62
  256
370
   -1
100
AcDbLine
 10
105.85
 20
4.99999992898
 11
105.85
 21
4.19961390615
  0
LINE
  5
1B5
100
AcDbEntity
  8
Visible (ANSI)
  6
ByLayer
 62
  256
370
   -1
100
AcDbLine
 10
4.15
 20
4.19961390615
 11
4.15
 21
4.99999992717
  0
ARC
  5
1B6
100
AcDbEntity
  8
Visible (ANSI)
  6
ByLayer
 62
  256
370
   -1
100
AcDbCircle
 10
0
 20
5
 40
4.15
100
AcDbArc
 50
359.9999991459999
 51
90.00000085760001
  0
ARC
  5
1B7
100
AcDbEntity
  8
Visible (ANSI)
  6
ByLayer
 62
  256
370
   -1
100
AcDbCircle
 10
110
 20
115
 40
5
100
AcDbArc
 50
0
 51
90
  0
LINE
  5
1B8
100
AcDbEntity
  8
Visible (ANSI)
  6
ByLayer
 62
  256
370
   -1
100
AcDbLine
 10
110
 20
120
 11
0
 21
120
  0
ARC
  5
1B9
100
AcDbEntity
  8
Visible (ANSI)
  6
ByLayer
 62
  256
370
   -1
100
AcDbCircle
 10
0
 20
115
 40
5
100
AcDbArc
 50
90
 51
180
  0
LINE
  5
1BA
100
AcDbEntity
  8
Visible (ANSI)
  6
ByLayer
 62
  256
370
   -1
100
AcDbLine
 10
-5
 20
115
 11
-5
 21
5
  0
ARC
  5
1BB
100
AcDbEntity
  8
Visible (ANSI)
  6
ByLayer
 62
  256
370
   -1
100
AcDbCircle
 10
0
 20
5
 40
5
100
AcDbArc
 50
180
 51
270
  0
LINE
  5
1BC
100
AcDbEntity
  8
Visible (ANSI)
  6
ByLayer
 62
  256
370
   -1
100
AcDbLine
 10
0
 20
0
 11
110
 21
0
  0
ARC
  5
1BD
100
AcDbEntity
  8
Visible (ANSI)
  6
ByLayer
 62
  256
370
   -1
100
AcDbCircle
 10
110
 20
5
 40
5
100
AcDbArc
 50
270
 51
0
  0
LINE
  5
1BE
100
AcDbEntity
  8
Visible (ANSI)
  6
ByLayer
 62
  256
370
   -1
100
AcDbLine
 10
115
 20
5
 11
115
 21
115
  0
LINE
  5
1BF
100
AcDbEntity
  8
Center Mark (ANSI)
  6
CONTINUOUS
 62
  256
370
   -1
100
AcDbLine
 10
3.41666666667
 20
4.75
 11
-3.91666666667
 21
4.75
  0
LINE
  5
1C0
100
AcDbEntity
  8
Center Mark (ANSI)
  6
CONTINUOUS
 62
  256
370
   -1
100
AcDbLine
 10
-0.25
 20
8.41666666667
 11
-0.25
 21
1.08333333333
  0
LINE
  5
1C1
100
AcDbEntity
  8
Center Mark (ANSI)
  6
CONTINUOUS
 62
  256
370
   -1
100
AcDbLine
 10
3.41666666667
 20
115.25
 11
-3.91666666667
 21
115.25
  0
LINE
  5
1C2
100
AcDbEntity
  8
Center Mark (ANSI)
  6
CONTINUOUS
 62
  256
370
   -1
100
AcDbLine
 10
-0.25
 20
118.916666667
 11
-0.25
 21
111.583333333
  0
LINE
  5
1C3
100
AcDbEntity
  8
Center Mark (ANSI)
  6
CONTINUOUS
 62
  256
370
   -1
100
AcDbLine
 10
113.916666667
 20
4.75
 11
106.583333333
 21
4.75
  0
LINE
  5
1C4
100
AcDbEntity
  8
Center Mark (ANSI)
  6
CONTINUOUS
 62
  256
370
   -1
100
AcDbLine
 10
110.25
 20
8.41666666667
 11
110.25
 21
1.08333333333
  0
LINE
  5
1C5
100
AcDbEntity
  8
Center Mark (ANSI)
  6
CONTINUOUS
 62
  256
370
   -1
100
AcDbLine
 10
113.916666667
 20
115.25
 11
106.583333333
 21
115.25
  0
LINE
  5
1C6
100
AcDbEntity
  8
Center Mark (ANSI)
  6
CONTINUOUS
 62
  256
370
   -1
100
AcDbLine
 10
110.25
 20
118.916666667
 11
110.25
 21
111.583333333
  0
ENDBLK
  5
69
330
67
100
AcDbEntity
  8
0
100
AcDbBlockEnd
  0
BLOCK
  5
6B
330
6A
100
AcDbEntity
  8
0
100
AcDbBlockBegin
  2
groß
 70
    0
 10
0
 20
0
  3
groß
  1

  0
LINE
  5
1C7
100
AcDbEntity
  8
0
  6
ByLayer
 62
  256
370
   -1
100
AcDbLine
 10
1.137e-13
 20
-5.68e-14
 11
15.767
 21
-5.68e-14
  0
LINE
  5
1C8
100
AcDbEntity
  8
0
  6
ByLayer
 62
  256
370
   -1
100
AcDbLine
 10
0
 20
0
 11
0
 21
15.767
  0
LINE
  5
1C9
100
AcDbEntity
  8
0
  6
ByLayer
 62
  256
370
   -1
100
AcDbLine
 10
15.767
 20
-5.68e-14
 11
15.767
 21
15.767
  0
LINE
  5
1CA
100
AcDbEntity
  8
0
  6
ByLayer
 62
  256
370
   -1
100
AcDbLine
 10
0
 20
15.767
 11
15.767
 21
15.767
  0
ENDBLK
  5
6C
330
6A
100
AcDbEntity
  8
0
100
AcDbBlockEnd
  0
BLOCK
  5
6E
330
6D
100
AcDbEntity
  8
0
100
AcDbBlockBegin
  2
2dTransSection4
 70
    0
 10
0
 20
0
  3
2dTransSection4
  1

  0
LINE
  5
1CB
100
AcDbEntity
  8
Section Line (ANSI)
  6
CONTINUOUS
 62
  256
370
   -1
100
AcDbLine
 10
69.4041026605
 20
14.111024454
 11
74.4041026605
 21
13.111024454
  0
LINE
  5
1CC
100
AcDbEntity
  8
Section Line (ANSI)
  6
CONTINUOUS
 62
  256
370
   -1
100
AcDbLine
 10
74.4041026605
 20
13.111024454
 11
74.4041026605
 21
15.111024454
  0
LINE
  5
1CD
100
AcDbEntity
  8
Section Line (ANSI)
  6
CONTINUOUS
 62
  256
370
   -1
100
AcDbLine
 10
79.4041026605
 20
14.111024454
 11
74.4041026605
 21
14.111024454
  0
MTEXT
  5
1CE
100
AcDbEntity
  8
Section Line (ANSI)
  6
ByLayer
 62
  256
370
   -1
100
AcDbMText
 10
81.336728698
 20
62.84748857659984
 30
0
 40
2.54000008106
 41
1.128888924915713
 71
    7
 72
    1
  1
C
  7
textstyle0
210
0
220
0
230
1
 50
0
 73
    1
 44
0.84934656
  0
MTEXT
  5
1CF
100
AcDbEntity
  8
Section Line (ANSI)
  6
ByLayer
 62
  256
370
   -1
100
AcDbMText
 10
81.4963016258
 20
12.61345614959984
 30
0
 40
2.54000008106
 41
1.128888924915713
 71
    7
 72
    1
  1
C
  7
textstyle1
210
0
220
0
230
1
 50
0
 73
    1
 44
0.84934656
  0
LINE
  5
1D0
100
AcDbEntity
  8
Section Line (ANSI)
  6
CONTINUOUS
 62
  256
370
   -1
100
AcDbLine
 10
79.4041026605
 20
63.9751035118
 11
79.4041026605
 21
14.111024454
  0
LINE
  5
1D1
100
AcDbEntity
  8
Section Line (ANSI)
  6
CONTINUOUS
 62
  256
370
   -1
100
AcDbLine
 10
79.4041026605
 20
63.9751035118
 11
79.4041026605
 21
62.6361495092
  0
LINE
  5
1D2
100
AcDbEntity
  8
Section Line (ANSI)
  6
CONTINUOUS
 62
  256
370
   -1
100
AcDbLine
 10
79.4041026605
 20
15.4499784566
 11
79.4041026605
 21
14.111024454
  0
LINE
  5
1D3
100
AcDbEntity
  8
Section Line (ANSI)
  6
CONTINUOUS
 62
  256
370
   -1
100
AcDbLine
 10
74.4041026605
 20
63.9751035118
 11
69.4041026605
 21
63.9751035118
  0
LWPOLYLINE
  5
1D4
100
AcDbEntity
  8
Section Line (ANSI)
  6
CONTINUOUS
 62
  256
370
   -1
100
AcDbPolyline
 90
    4
 70
    0
 43
0
 10
74.404102279
 20
64.9751036034
 10
69.4041027559
 20
63.9751031265
 10
74.404102279
 20
62.9751040802
 10
74.404102279
 20
64.9751036034
  0
SOLID
  5
1D5
100
AcDbEntity
  8
Section Line (ANSI)
  6
ByLayer
 62
  256
370
   -1
100
AcDbTrace
 10
74.404102279
 20
64.9751036034
 30
0
 11
69.4041027559
 21
63.9751031265
 31
0
 12
74.404102279
 22
62.9751040802
 32
0
 13
74.404102279
 23
64.9751036034
 33
0
  0
LINE
  5
1D6
100
AcDbEntity
  8
Section Line (ANSI)
  6
CONTINUOUS
 62
  256
370
   -1
100
AcDbLine
 10
74.4041026605
 20
64.9751035118
 11
69.4041026605
 21
63.9751035118
  0
LINE
  5
1D7
100
AcDbEntity
  8
Section Line (ANSI)
  6
CONTINUOUS
 62
  256
370
   -1
100
AcDbLine
 10
69.4041026605
 20
63.9751035118
 11
74.4041026605
 21
62.9751035118
  0
LINE
  5
1D8
100
AcDbEntity
  8
Section Line (ANSI)
  6
CONTINUOUS
 62
  256
370
   -1
100
AcDbLine
 10
74.4041026605
 20
62.9751035118
 11
74.4041026605
 21
64.9751035118
  0
LINE
  5
1D9
100
AcDbEntity
  8
Section Line (ANSI)
  6
CONTINUOUS
 62
  256
370
   -1
100
AcDbLine
 10
79.4041026605
 20
63.9751035118
 11
74.4041026605
 21
63.9751035118
  0
LINE
  5
1DA
100
AcDbEntity
  8
Section Line (ANSI)
  6
CONTINUOUS
 62
  256
370
   -1
100
AcDbLine
 10
74.4041026605
 20
14.111024454
 11
69.4041026605
 21
14.111024454
  0
LWPOLYLINE
  5
1DB
100
AcDbEntity
  8
Section Line (ANSI)
  6
CONTINUOUS
 62
  256
370
   -1
100
AcDbPolyline
 90
    4
 70
    0
 43
0
 10
74.404102279
 20
15.111024128
 10
69.4041027559
 20
14.1110250816
 10
74.404102279
 20
13.1110231743
 10
74.404102279
 20
15.111024128
  0
SOLID
  5
1DC
100
AcDbEntity
  8
Section Line (ANSI)
  6
ByLayer
 62
  256
370
   -1
100
AcDbTrace
 10
74.404102279
 20
15.111024128
 30
0
 11
69.4041027559
 21
14.1110250816
 31
0
 12
74.404102279
 22
13.1110231743
 32
0
 13
74.404102279
 23
15.111024128
 33
0
  0
LINE
  5
1DD
100
AcDbEntity
  8
Section Line (ANSI)
  6
CONTINUOUS
 62
  256
370
   -1
100
AcDbLine
 10
74.4041026605
 20
15.111024454
 11
69.4041026605
 21
14.111024454
  0
ENDBLK
  5
6F
330
6D
100
AcDbEntity
  8
0
100
AcDbBlockEnd
  0
BLOCK
  5
71
330
70
100
AcDbEntity
  8
0
100
AcDbBlockBegin
  2
Wanne
 70
    0
 10
0
 20
0
  3
Wanne
  1

  0
CIRCLE
  5
1DE
100
AcDbEntity
  8
Visible (ANSI)
  6
ByLayer
 62
  256
370
   -1
100
AcDbCircle
 10
110.251286953
 20
-115.25
 40
1.321
  0
CIRCLE
  5
1DF
100
AcDbEntity
  8
Visible (ANSI)
  6
ByLayer
 62
  256
370
   -1
100
AcDbCircle
 10
110.251286953
 20
-115.25
 40
1.925
  0
CIRCLE
  5
1E0
100
AcDbEntity
  8
Visible (ANSI)
  6
ByLayer
 62
  256
370
   -1
100
AcDbCircle
 10
-0.248713046613
 20
-4.75
 40
1.321
  0
CIRCLE
  5
1E1
100
AcDbEntity
  8
Visible (ANSI)
  6
ByLayer
 62
  256
370
   -1
100
AcDbCircle
 10
-0.248713046613
 20
-4.75
 40
1.925
  0
CIRCLE
  5
1E2
100
AcDbEntity
  8
Visible (ANSI)
  6
ByLayer
 62
  256
370
   -1
100
AcDbCircle
 10
110.251286953
 20
-4.75
 40
1.321
  0
CIRCLE
  5
1E3
100
AcDbEntity
  8
Visible (ANSI)
  6
ByLayer
 62
  256
370
   -1
100
AcDbCircle
 10
110.251286953
 20
-4.75
 40
1.925
  0
CIRCLE
  5
1E4
100
AcDbEntity
  8
Visible (ANSI)
  6
ByLayer
 62
  256
370
   -1
100
AcDbCircle
 10
-0.248713046613
 20
-115.25
 40
1.321
  0
CIRCLE
  5
1E5
100
AcDbEntity
  8
Visible (ANSI)
  6
ByLayer
 62
  256
370
   -1
100
AcDbCircle
 10
-0.248713046613
 20
-115.25
 40
1.925
  0
ELLIPSE
  5
1E6
100
AcDbEntity
  8
Visible (ANSI)
  6
ByLayer
 62
  256
370
   -1
100
AcDbEllipse
 10
111.000900768
 20
-110.499613815
 30
0
 11
1.06120625016
 21
-1.06120625016
 31
0
 40
0.999485417293
 41
5.49804450135
 42
7.06832611301
  0
ELLIPSE
  5
1E7
100
AcDbEntity
  8
Visible (ANSI)
  6
ByLayer
 62
  256
370
   -1
100
AcDbEllipse
 10
105.500900768
 20
-115.999613815
 30
0
 11
1.06120625016
 21
-1.06120625016
 31
0
 40
0.999485417293
 41
5.49804450135
 42
7.06832611301
  0
ELLIPSE
  5
1E8
100
AcDbEntity
  8
Visible (ANSI)
  6
ByLayer
 62
  256
370
   -1
100
AcDbEllipse
 10
4.5016731388
 20
-115.999613815
 30
0
 11
-1.06120625016
 21
-1.06120625016
 31
0
 40
0.999485417293
 41
5.49804450135
 42
7.06832611301
  0
ELLIPSE
  5
1E9
100
AcDbEntity
  8
Visible (ANSI)
  6
ByLayer
 62
  256
370
   -1
100
AcDbEllipse
 10
-0.998326861197
 20
-110.499613815
 30
0
 11
-1.06120625016
 21
-1.06120625016
 31
0
 40
0.999485417293
 41
5.49804450135
 42
7.06832611301
  0
ELLIPSE
  5
1EA
100
AcDbEntity
  8
Visible (ANSI)
  6
ByLayer
 62
  256
370
   -1
100
AcDbEllipse
 10
4.5016731388
 20
-4.00038618542
 30
0
 11
-1.06120625016
 21
1.06120625016
 31
0
 40
0.999485417293
 41
5.49804450135
 42
7.06832611301
  0
ELLIPSE
  5
1EB
100
AcDbEntity
  8
Visible (ANSI)
  6
ByLayer
 62
  256
370
   -1
100
AcDbEllipse
 10
105.500900768
 20
-4.00038618542
 30
0
 11
1.06120625016
 21
1.06120625016
 31
0
 40
0.999485417293
 41
5.49804450135
 42
7.06832611301
  0
ELLIPSE
  5
1EC
100
AcDbEntity
  8
Visible (ANSI)
  6
ByLayer
 62
  256
370
   -1
100
AcDbEllipse
 10
111.000900768
 20
-9.50038618542
 30
0
 11
1.06120625016
 21
1.06120625016
 31
0
 40
0.999485417293
 41
5.49804450135
 42
7.06832611301
  0
ELLIPSE
  5
1ED
100
AcDbEntity
  8
Visible (ANSI)
  6
ByLayer
 62
  256
370
   -1
100
AcDbEllipse
 10
-0.998326861197
 20
-9.50038618542
 30
0
 11
-1.06120625016
 21
1.06120625016
 31
0
 40
0.999485417293
 41
5.49804450135
 42
7.06832611301
  0
LINE
  5
1EE
100
AcDbEntity
  8
Visible (ANSI)
  6
ByLayer
 62
  256
370
   -1
100
AcDbLine
 10
111.001673039
 20
-112
 11
108.751286953
 21
-112
  0
ARC
  5
1EF
100
AcDbEntity
  8
Visible (ANSI)
  6
ByLayer
 62
  256
370
   -1
100
AcDbCircle
 10
108.751286953
 20
-113.75
 40
1.75
100
AcDbArc
 50
90
 51
180
  0
LINE
  5
1F0
100
AcDbEntity
  8
Visible (ANSI)
  6
ByLayer
 62
  256
370
   -1
100
AcDbLine
 10
107.001286953
 20
-113.75
 11
107.001286953
 21
-116.000386086
  0
LINE
  5
1F1
100
AcDbEntity
  8
Visible (ANSI)
  6
ByLayer
 62
  256
370
   -1
100
AcDbLine
 10
105.501673039
 20
-117.5
 11
4.50090086737
 21
-117.5
  0
LINE
  5
1F2
100
AcDbEntity
  8
Visible (ANSI)
  6
ByLayer
 62
  256
370
   -1
100
AcDbLine
 10
3.00128695339
 20
-116.000386086
 11
3.00128695339
 21
-113.75
  0
ARC
  5
1F3
100
AcDbEntity
  8
Visible (ANSI)
  6
ByLayer
 62
  256
370
   -1
100
AcDbCircle
 10
1.25128695339
 20
-113.75
 40
1.75
100
AcDbArc
 50
0
 51
90
  0
LINE
  5
1F4
100
AcDbEntity
  8
Visible (ANSI)
  6
ByLayer
 62
  256
370
   -1
100
AcDbLine
 10
1.25128695339
 20
-112
 11
-0.999099132629
 21
-112
  0
LINE
  5
1F5
100
AcDbEntity
  8
Visible (ANSI)
  6
ByLayer
 62
  256
370
   -1
100
AcDbLine
 10
-2.49871304661
 20
-110.500386086
 11
-2.49871304661
 21
-9.499613913979999
  0
LINE
  5
1F6
100
AcDbEntity
  8
Visible (ANSI)
  6
ByLayer
 62
  256
370
   -1
100
AcDbLine
 10
3.00128695339
 20
-6.25
 11
3.00128695339
 21
-3.99961391398
  0
LINE
  5
1F7
100
AcDbEntity
  8
Visible (ANSI)
  6
ByLayer
 62
  256
370
   -1
100
AcDbLine
 10
4.50090086737
 20
-2.5
 11
105.501673039
 21
-2.5
  0
LINE
  5
1F8
100
AcDbEntity
  8
Visible (ANSI)
  6
ByLayer
 62
  256
370
   -1
100
AcDbLine
 10
108.751286953
 20
-8
 11
111.001673039
 21
-8
  0
LINE
  5
1F9
100
AcDbEntity
  8
Visible (ANSI)
  6
ByLayer
 62
  256
370
   -1
100
AcDbLine
 10
112.501286953
 20
-9.499613913979999
 11
112.501286953
 21
-110.500386086
  0
ARC
  5
1FA
100
AcDbEntity
  8
Visible (ANSI)
  6
ByLayer
 62
  256
370
   -1
100
AcDbCircle
 10
1.25128695339
 20
-6.25
 40
1.75
100
AcDbArc
 50
270
 51
0
  0
LINE
  5
1FB
100
AcDbEntity
  8
Visible (ANSI)
  6
ByLayer
 62
  256
370
   -1
100
AcDbLine
 10
-0.999099132629
 20
-8
 11
1.25128695339
 21
-8
  0
ARC
  5
1FC
100
AcDbEntity
  8
Visible (ANSI)
  6
ByLayer
 62
  256
370
   -1
100
AcDbCircle
 10
108.751286953
 20
-6.25
 40
1.75
100
AcDbArc
 50
180
 51
270
  0
LINE
  5
1FD
100
AcDbEntity
  8
Visible (ANSI)
  6
ByLayer
 62
  256
370
   -1
100
AcDbLine
 10
107.001286953
 20
-3.99961391398
 11
107.001286953
 21
-6.25
  0
ELLIPSE
  5
1FE
100
AcDbEntity
  8
Visible (ANSI)
  6
ByLayer
 62
  256
370
   -1
100
AcDbEllipse
 10
0.00257423810808
 20
-114.998712715
 30
0
 11
-3.53735416722
 21
-3.53735416722
 31
0
 40
0.9994854172929999
 41
5.49804450135
 42
7.06832611301
  0
ELLIPSE
  5
1FF
100
AcDbEntity
  8
Visible (ANSI)
  6
ByLayer
 62
  256
370
   -1
100
AcDbEllipse
 10
109.999999669
 20
-114.998712715
 30
0
 11
3.53735416722
 21
-3.53735416722
 31
0
 40
0.9994854172929999
 41
5.49804450135
 42
7.06832611301
  0
ELLIPSE
  5
200
100
AcDbEntity
  8
Visible (ANSI)
  6
ByLayer
 62
  256
370
   -1
100
AcDbEllipse
 10
109.999999669
 20
-5.00128728472
 30
0
 11
3.53735416722
 21
3.53735416722
 31
0
 40
0.9994854172929999
 41
5.49804450135
 42
7.06832611301
  0
ELLIPSE
  5
201
100
AcDbEntity
  8
Visible (ANSI)
  6
ByLayer
 62
  256
370
   -1
100
AcDbEllipse
 10
0.00257423810808
 20
-5.00128728472
 30
0
 11
-3.53735416722
 21
3.53735416722
 31
0
 40
0.9994854172929999
 41
5.49804450135
 42
7.06832611301
  0
LINE
  5
202
100
AcDbEntity
  8
Visible (ANSI)
  6
ByLayer
 62
  256
370
   -1
100
AcDbLine
 10
-4.99871304661
 20
-4.99871304661
 11
-4.99871304661
 21
-115.001286953
  0
LINE
  5
203
100
AcDbEntity
  8
Visible (ANSI)
  6
ByLayer
 62
  256
370
   -1
100
AcDbLine
 10
1.137e-13
 20
-120
 11
110.002573907
 21
-120
  0
LINE
  5
204
100
AcDbEntity
  8
Visible (ANSI)
  6
ByLayer
 62
  256
370
   -1
100
AcDbLine
 10
115.001286953
 20
-115.001286953
 11
115.001286953
 21
-4.99871304661
  0
LINE
  5
205
100
AcDbEntity
  8
Visible (ANSI)
  6
ByLayer
 62
  256
370
   -1
100
AcDbLine
 10
110.002573907
 20
5.68e-14
 11
0
 21
5.68e-14
  0
LINE
  5
206
100
AcDbEntity
  8
Center Mark (ANSI)
  6
CONTINUOUS
 62
  256
370
   -1
100
AcDbLine
 10
3.34295362005
 20
-115.25
 11
-3.84037971328
 21
-115.25
  0
LINE
  5
207
100
AcDbEntity
  8
Center Mark (ANSI)
  6
CONTINUOUS
 62
  256
370
   -1
100
AcDbLine
 10
-0.248713046613
 20
-111.658333333
 11
-0.248713046613
 21
-118.841666667
  0
LINE
  5
208
100
AcDbEntity
  8
Center Mark (ANSI)
  6
CONTINUOUS
 62
  256
370
   -1
100
AcDbLine
 10
3.34295362005
 20
-4.75
 11
-3.84037971328
 21
-4.75
  0
LINE
  5
209
100
AcDbEntity
  8
Center Mark (ANSI)
  6
CONTINUOUS
 62
  256
370
   -1
100
AcDbLine
 10
-0.248713046613
 20
-1.15833333333
 11
-0.248713046613
 21
-8.341666666669999
  0
LINE
  5
20A
100
AcDbEntity
  8
Center Mark (ANSI)
  6
CONTINUOUS
 62
  256
370
   -1
100
AcDbLine
 10
113.84295362
 20
-115.25
 11
106.659620287
 21
-115.25
  0
LINE
  5
20B
100
AcDbEntity
  8
Center Mark (ANSI)
  6
CONTINUOUS
 62
  256
370
   -1
100
AcDbLine
 10
110.251286953
 20
-111.658333333
 11
110.251286953
 21
-118.841666667
  0
LINE
  5
20C
100
AcDbEntity
  8
Center Mark (ANSI)
  6
CONTINUOUS
 62
  256
370
   -1
100
AcDbLine
 10
113.84295362
 20
-4.75
 11
106.659620287
 21
-4.75
  0
LINE
  5
20D
100
AcDbEntity
  8
Center Mark (ANSI)
  6
CONTINUOUS
 62
  256
370
   -1
100
AcDbLine
 10
110.251286953
 20
-1.15833333333
 11
110.251286953
 21
-8.341666666669999
  0
ENDBLK
  5
72
330
70
100
AcDbEntity
  8
0
100
AcDbBlockEnd
  0
BLOCK
  5
74
330
73
100
AcDbEntity
  8
0
100
AcDbBlockBegin
  2
Platine
 70
    0
 10
0
 20
0
  3
Platine
  1

  0
LINE
  5
20E
100
AcDbEntity
  8
BLACK
  6
ByLayer
 62
  256
370
   -1
100
AcDbLine
 10
0
 20
-0.381
 11
96.012
 21
-0.381
  0
LINE
  5
20F
100
AcDbEntity
  8
BLACK
  6
ByLayer
 62
  256
370
   -1
100
AcDbLine
 10
0
 20
0
 11
96.012
 21
0
  0
ARC
  5
210
100
AcDbEntity
  8
BLACK
  6
ByLayer
 62
  256
370
   -1
100
AcDbCircle
 10
96.012
 20
-0.1905
 40
0.1905
100
AcDbArc
 50
270
 51
90
  0
ARC
  5
211
100
AcDbEntity
  8
BLACK
  6
ByLayer
 62
  256
370
   -1
100
AcDbCircle
 10
0
 20
-0.1905
 40
0.1905
100
AcDbArc
 50
90
 51
270
  0
LINE
  5
212
100
AcDbEntity
  8
BLACK
  6
ByLayer
 62
  256
370
   -1
100
AcDbLine
 10
-6.85
 20
-7.3102
 11
0.135
 21
-0.3252
  0
LINE
  5
213
100
AcDbEntity
  8
BLACK
  6
ByLayer
 62
  256
370
   -1
100
AcDbLine
 10
-7.1197
 20
-7.0408
 11
-0.135
 21
-0.0558
  0
ARC
  5
214
100
AcDbEntity
  8
BLACK
  6
ByLayer
 62
  256
370
   -1
100
AcDbCircle
 10
0
 20
-0.1905
 40
0.1905
100
AcDbArc
 50
315
 51
135
  0
ARC
  5
215
100
AcDbEntity
  8
BLACK
  6
ByLayer
 62
  256
370
   -1
100
AcDbCircle
 10
-6.985
 20
-7.1755
 40
0.1905
100
AcDbArc
 50
135
 51
315
  0
LINE
  5
216
100
AcDbEntity
  8
BLACK
  6
ByLayer
 62
  256
370
   -1
100
AcDbLine
 10
-6.794
 20
-103.0605
 11
-6.794
 21
-7.1755
  0
LINE
  5
217
100
AcDbEntity
  8
BLACK
  6
ByLayer
 62
  256
370
   -1
100
AcDbLine
 10
-7.1755
 20
-103.0605
 11
-7.1755
 21
-7.1755
  0
ARC
  5
218
100
AcDbEntity
  8
BLACK
  6
ByLayer
 62
  256
370
   -1
100
AcDbCircle
 10
-6.985
 20
-7.1755
 40
0.1905
100
AcDbArc
 50
0
 51
180
  0
ARC
  5
219
100
AcDbEntity
  8
BLACK
  6
ByLayer
 62
  256
370
   -1
100
AcDbCircle
 10
-6.985
 20
-103.0605
 40
0.1905
100
AcDbArc
 50
180
 51
0
  0
LINE
  5
21A
100
AcDbEntity
  8
BLACK
  6
ByLayer
 62
  256
370
   -1
100
AcDbLine
 10
0.262
 20
-110.0375
 11
-6.85
 21
-102.9255
  0
LINE
  5
21B
100
AcDbEntity
  8
BLACK
  6
ByLayer
 62
  256
370
   -1
100
AcDbLine
 10
-0.008000000000039999
 20
-110.3075
 11
-7.1197
 21
-103.1955
  0
ARC
  5
21C
100
AcDbEntity
  8
BLACK
  6
ByLayer
 62
  256
370
   -1
100
AcDbCircle
 10
-6.985
 20
-103.0605
 40
0.1905
100
AcDbArc
 50
45
 51
225
  0
ARC
  5
21D
100
AcDbEntity
  8
BLACK
  6
ByLayer
 62
  256
370
   -1
100
AcDbCircle
 10
0.127
 20
-110.1725
 40
0.1905
100
AcDbArc
 50
225
 51
45
  0
LINE
  5
21E
100
AcDbEntity
  8
BLACK
  6
ByLayer
 62
  256
370
   -1
100
AcDbLine
 10
0.127
 20
-110.3635
 11
95.88500000000001
 21
-110.3635
  0
LINE
  5
21F
100
AcDbEntity
  8
BLACK
  6
ByLayer
 62
  256
370
   -1
100
AcDbLine
 10
0.127
 20
-109.9825
 11
95.88500000000001
 21
-109.9825
  0
ARC
  5
220
100
AcDbEntity
  8
BLACK
  6
ByLayer
 62
  256
370
   -1
100
AcDbCircle
 10
95.88500000000001
 20
-110.1725
 40
0.1905
100
AcDbArc
 50
270
 51
90
  0
ARC
  5
221
100
AcDbEntity
  8
BLACK
  6
ByLayer
 62
  256
370
   -1
100
AcDbCircle
 10
0.127
 20
-110.1725
 40
0.1905
100
AcDbArc
 50
90
 51
270
  0
LINE
  5
222
100
AcDbEntity
  8
BLACK
  6
ByLayer
 62
  256
370
   -1
100
AcDbLine
 10
102.862
 20
-102.9255
 11
95.75
 21
-110.0375
  0
LINE
  5
223
100
AcDbEntity
  8
BLACK
  6
ByLayer
 62
  256
370
   -1
100
AcDbLine
 10
103.132
 20
-103.1955
 11
96.02
 21
-110.3075
  0
ARC
  5
224
100
AcDbEntity
  8
BLACK
  6
ByLayer
 62
  256
370
   -1
100
AcDbCircle
 10
95.88500000000001
 20
-110.1725
 40
0.1905
100
AcDbArc
 50
135
 51
315
  0
ARC
  5
225
100
AcDbEntity
  8
BLACK
  6
ByLayer
 62
  256
370
   -1
100
AcDbCircle
 10
102.997
 20
-103.0605
 40
0.1905
100
AcDbArc
 50
315
 51
135
  0
LINE
  5
226
100
AcDbEntity
  8
BLACK
  6
ByLayer
 62
  256
370
   -1
100
AcDbLine
 10
103.188
 20
-103.0605
 11
103.188
 21
-7.1755
  0
LINE
  5
227
100
AcDbEntity
  8
BLACK
  6
ByLayer
 62
  256
370
   -1
100
AcDbLine
 10
102.807
 20
-103.0605
 11
102.807
 21
-7.1755
  0
ARC
  5
228
100
AcDbEntity
  8
BLACK
  6
ByLayer
 62
  256
370
   -1
100
AcDbCircle
 10
102.997
 20
-7.1755
 40
0.1905
100
AcDbArc
 50
0
 51
180
  0
ARC
  5
229
100
AcDbEntity
  8
BLACK
  6
ByLayer
 62
  256
370
   -1
100
AcDbCircle
 10
102.997
 20
-103.0605
 40
0.1905
100
AcDbArc
 50
180
 51
0
  0
LINE
  5
22A
100
AcDbEntity
  8
BLACK
  6
ByLayer
 62
  256
370
   -1
100
AcDbLine
 10
95.877
 20
-0.3252
 11
102.862
 21
-7.3102
  0
LINE
  5
22B
100
AcDbEntity
  8
BLACK
  6
ByLayer
 62
  256
370
   -1
100
AcDbLine
 10
96.14700000000001
 20
-0.0558
 11
103.132
 21
-7.0408
  0
ARC
  5
22C
100
AcDbEntity
  8
BLACK
  6
ByLayer
 62
  256
370
   -1
100
AcDbCircle
 10
102.997
 20
-7.1755
 40
0.1905
100
AcDbArc
 50
225
 51
45
  0
ARC
  5
22D
100
AcDbEntity
  8
BLACK
  6
ByLayer
 62
  256
370
   -1
100
AcDbCircle
 10
96.012
 20
-0.1905
 40
0.1905
100
AcDbArc
 50
45
 51
225
  0
LINE
  5
22E
100
AcDbEntity
  8
BLACK
  6
ByLayer
 62
  256
370
   -1
100
AcDbLine
 10
34.517
 20
-0.1905
 11
34.517
 21
4.1275
  0
LINE
  5
22F
100
AcDbEntity
  8
BLACK
  6
ByLayer
 62
  256
370
   -1
100
AcDbLine
 10
34.317
 20
-0.1905
 11
34.317
 21
4.1275
  0
ARC
  5
230
100
AcDbEntity
  8
BLACK
  6
ByLayer
 62
  256
370
   -1
100
AcDbCircle
 10
34.417
 20
4.1275
 40
0.10033
100
AcDbArc
 50
0
 51
180
  0
ARC
  5
231
100
AcDbEntity
  8
BLACK
  6
ByLayer
 62
  256
370
   -1
100
AcDbCircle
 10
34.417
 20
-0.1905
 40
0.10033
100
AcDbArc
 50
180
 51
0
  0
LINE
  5
232
100
AcDbEntity
  8
BLACK
  6
ByLayer
 62
  256
370
   -1
100
AcDbLine
 10
15.621
 20
4.0272
 11
34.417
 21
4.0272
  0
LINE
  5
233
100
AcDbEntity
  8
BLACK
  6
ByLayer
 62
  256
370
   -1
100
AcDbLine
 10
15.621
 20
4.2278
 11
34.417
 21
4.2278
  0
ARC
  5
234
100
AcDbEntity
  8
BLACK
  6
ByLayer
 62
  256
370
   -1
100
AcDbCircle
 10
34.417
 20
4.1275
 40
0.10033
100
AcDbArc
 50
270
 51
90
  0
ARC
  5
235
100
AcDbEntity
  8
BLACK
  6
ByLayer
 62
  256
370
   -1
100
AcDbCircle
 10
15.621
 20
4.1275
 40
0.10033
100
AcDbArc
 50
90
 51
270
  0
LINE
  5
236
100
AcDbEntity
  8
BLACK
  6
ByLayer
 62
  256
370
   -1
100
AcDbLine
 10
15.721
 20
-0.1905
 11
15.721
 21
4.1275
  0
LINE
  5
237
100
AcDbEntity
  8
BLACK
  6
ByLayer
 62
  256
370
   -1
100
AcDbLine
 10
15.521
 20
-0.1905
 11
15.521
 21
4.1275
  0
ARC
  5
238
100
AcDbEntity
  8
BLACK
  6
ByLayer
 62
  256
370
   -1
100
AcDbCircle
 10
15.621
 20
4.1275
 40
0.10033
100
AcDbArc
 50
0
 51
180
  0
ARC
  5
239
100
AcDbEntity
  8
BLACK
  6
ByLayer
 62
  256
370
   -1
100
AcDbCircle
 10
15.621
 20
-0.1905
 40
0.10033
100
AcDbArc
 50
180
 51
0
  0
LINE
  5
23A
100
AcDbEntity
  8
BLACK
  6
ByLayer
 62
  256
370
   -1
100
AcDbLine
 10
19.658
 20
-13.0175
 11
19.658
 21
-6.2865
  0
LINE
  5
23B
100
AcDbEntity
  8
BLACK
  6
ByLayer
 62
  256
370
   -1
100
AcDbLine
 10
19.458
 20
-13.0175
 11
19.458
 21
-6.2865
  0
ARC
  5
23C
100
AcDbEntity
  8
BLACK
  6
ByLayer
 62
  256
370
   -1
100
AcDbCircle
 10
19.558
 20
-6.2865
 40
0.10033
100
AcDbArc
 50
0
 51
180
  0
ARC
  5
23D
100
AcDbEntity
  8
BLACK
  6
ByLayer
 62
  256
370
   -1
100
AcDbCircle
 10
19.558
 20
-13.0175
 40
0.10033
100
AcDbArc
 50
180
 51
0
  0
LINE
  5
23E
100
AcDbEntity
  8
BLACK
  6
ByLayer
 62
  256
370
   -1
100
AcDbLine
 10
22.452
 20
-13.1445
 11
22.452
 21
-6.2865
  0
LINE
  5
23F
100
AcDbEntity
  8
BLACK
  6
ByLayer
 62
  256
370
   -1
100
AcDbLine
 10
22.252
 20
-13.1445
 11
22.252
 21
-6.2865
  0
ARC
  5
240
100
AcDbEntity
  8
BLACK
  6
ByLayer
 62
  256
370
   -1
100
AcDbCircle
 10
22.352
 20
-6.2865
 40
0.10033
100
AcDbArc
 50
0
 51
180
  0
ARC
  5
241
100
AcDbEntity
  8
BLACK
  6
ByLayer
 62
  256
370
   -1
100
AcDbCircle
 10
22.352
 20
-13.1445
 40
0.10033
100
AcDbArc
 50
180
 51
0
  0
LINE
  5
242
100
AcDbEntity
  8
BLACK
  6
ByLayer
 62
  256
370
   -1
100
AcDbLine
 10
21.055
 20
-10.6045
 11
21.055
 21
-6.2865
  0
LINE
  5
243
100
AcDbEntity
  8
BLACK
  6
ByLayer
 62
  256
370
   -1
100
AcDbLine
 10
20.855
 20
-10.6045
 11
20.855
 21
-6.2865
  0
ARC
  5
244
100
AcDbEntity
  8
BLACK
  6
ByLayer
 62
  256
370
   -1
100
AcDbCircle
 10
20.955
 20
-6.2865
 40
0.10033
100
AcDbArc
 50
0
 51
180
  0
ARC
  5
245
100
AcDbEntity
  8
BLACK
  6
ByLayer
 62
  256
370
   -1
100
AcDbCircle
 10
20.955
 20
-10.6045
 40
0.10033
100
AcDbArc
 50
180
 51
0
  0
LINE
  5
246
100
AcDbEntity
  8
BLACK
  6
ByLayer
 62
  256
370
   -1
100
AcDbLine
 10
23.722
 20
-10.6045
 11
23.722
 21
-6.2865
  0
LINE
  5
247
100
AcDbEntity
  8
BLACK
  6
ByLayer
 62
  256
370
   -1
100
AcDbLine
 10
23.522
 20
-10.6045
 11
23.522
 21
-6.2865
  0
ARC
  5
248
100
AcDbEntity
  8
BLACK
  6
ByLayer
 62
  256
370
   -1
100
AcDbCircle
 10
23.622
 20
-6.2865
 40
0.10033
100
AcDbArc
 50
0
 51
180
  0
ARC
  5
249
100
AcDbEntity
  8
BLACK
  6
ByLayer
 62
  256
370
   -1
100
AcDbCircle
 10
23.622
 20
-10.6045
 40
0.10033
100
AcDbArc
 50
180
 51
0
  0
LINE
  5
24A
100
AcDbEntity
  8
BLACK
  6
ByLayer
 62
  256
370
   -1
100
AcDbLine
 10
25.119
 20
-13.1445
 11
25.119
 21
-6.2865
  0
LINE
  5
24B
100
AcDbEntity
  8
BLACK
  6
ByLayer
 62
  256
370
   -1
100
AcDbLine
 10
24.919
 20
-13.1445
 11
24.919
 21
-6.2865
  0
ARC
  5
24C
100
AcDbEntity
  8
BLACK
  6
ByLayer
 62
  256
370
   -1
100
AcDbCircle
 10
25.019
 20
-6.2865
 40
0.10033
100
AcDbArc
 50
0
 51
180
  0
ARC
  5
24D
100
AcDbEntity
  8
BLACK
  6
ByLayer
 62
  256
370
   -1
100
AcDbCircle
 10
25.019
 20
-13.1445
 40
0.10033
100
AcDbArc
 50
180
 51
0
  0
LINE
  5
24E
100
AcDbEntity
  8
BLACK
  6
ByLayer
 62
  256
370
   -1
100
AcDbLine
 10
26.516
 20
-10.6045
 11
26.516
 21
-6.2865
  0
LINE
  5
24F
100
AcDbEntity
  8
BLACK
  6
ByLayer
 62
  256
370
   -1
100
AcDbLine
 10
26.316
 20
-10.6045
 11
26.316
 21
-6.2865
  0
ARC
  5
250
100
AcDbEntity
  8
BLACK
  6
ByLayer
 62
  256
370
   -1
100
AcDbCircle
 10
26.416
 20
-6.2865
 40
0.10033
100
AcDbArc
 50
0
 51
180
  0
ARC
  5
251
100
AcDbEntity
  8
BLACK
  6
ByLayer
 62
  256
370
   -1
100
AcDbCircle
 10
26.416
 20
-10.6045
 40
0.10033
100
AcDbArc
 50
180
 51
0
  0
LINE
  5
252
100
AcDbEntity
  8
BLACK
  6
ByLayer
 62
  256
370
   -1
100
AcDbLine
 10
27.786
 20
-13.1445
 11
27.786
 21
-6.2865
  0
LINE
  5
253
100
AcDbEntity
  8
BLACK
  6
ByLayer
 62
  256
370
   -1
100
AcDbLine
 10
27.586
 20
-13.1445
 11
27.586
 21
-6.2865
  0
ARC
  5
254
100
AcDbEntity
  8
BLACK
  6
ByLayer
 62
  256
370
   -1
100
AcDbCircle
 10
27.686
 20
-6.2865
 40
0.10033
100
AcDbArc
 50
0
 51
180
  0
ARC
  5
255
100
AcDbEntity
  8
BLACK
  6
ByLayer
 62
  256
370
   -1
100
AcDbCircle
 10
27.686
 20
-13.1445
 40
0.10033
100
AcDbArc
 50
180
 51
0
  0
LINE
  5
256
100
AcDbEntity
  8
BLACK
  6
ByLayer
 62
  256
370
   -1
100
AcDbLine
 10
29.183
 20
-10.7315
 11
29.183
 21
-6.2865
  0
LINE
  5
257
100
AcDbEntity
  8
BLACK
  6
ByLayer
 62
  256
370
   -1
100
AcDbLine
 10
28.983
 20
-10.7315
 11
28.983
 21
-6.2865
  0
ARC
  5
258
100
AcDbEntity
  8
BLACK
  6
ByLayer
 62
  256
370
   -1
100
AcDbCircle
 10
29.083
 20
-6.2865
 40
0.10033
100
AcDbArc
 50
0
 51
180
  0
ARC
  5
259
100
AcDbEntity
  8
BLACK
  6
ByLayer
 62
  256
370
   -1
100
AcDbCircle
 10
29.083
 20
-10.7315
 40
0.10033
100
AcDbArc
 50
180
 51
0
  0
LINE
  5
25A
100
AcDbEntity
  8
BLACK
  6
ByLayer
 62
  256
370
   -1
100
AcDbLine
 10
30.58
 20
-13.1445
 11
30.58
 21
-6.2865
  0
LINE
  5
25B
100
AcDbEntity
  8
BLACK
  6
ByLayer
 62
  256
370
   -1
100
AcDbLine
 10
30.38
 20
-13.1445
 11
30.38
 21
-6.2865
  0
ARC
  5
25C
100
AcDbEntity
  8
BLACK
  6
ByLayer
 62
  256
370
   -1
100
AcDbCircle
 10
30.48
 20
-6.2865
 40
0.10033
100
AcDbArc
 50
0
 51
180
  0
ARC
  5
25D
100
AcDbEntity
  8
BLACK
  6
ByLayer
 62
  256
370
   -1
100
AcDbCircle
 10
30.48
 20
-13.1445
 40
0.10033
100
AcDbArc
 50
180
 51
0
  0
LINE
  5
25E
100
AcDbEntity
  8
BLACK
  6
ByLayer
 62
  256
370
   -1
100
AcDbLine
 10
34.517
 20
-6.2865
 11
34.517
 21
-4.7625
  0
LINE
  5
25F
100
AcDbEntity
  8
BLACK
  6
ByLayer
 62
  256
370
   -1
100
AcDbLine
 10
34.317
 20
-6.2865
 11
34.317
 21
-4.7625
  0
ARC
  5
260
100
AcDbEntity
  8
BLACK
  6
ByLayer
 62
  256
370
   -1
100
AcDbCircle
 10
34.417
 20
-4.7625
 40
0.10033
100
AcDbArc
 50
0
 51
180
  0
ARC
  5
261
100
AcDbEntity
  8
BLACK
  6
ByLayer
 62
  256
370
   -1
100
AcDbCircle
 10
34.417
 20
-6.2865
 40
0.10033
100
AcDbArc
 50
180
 51
0
  0
LINE
  5
262
100
AcDbEntity
  8
BLACK
  6
ByLayer
 62
  256
370
   -1
100
AcDbLine
 10
15.621
 20
-6.3868
 11
34.417
 21
-6.3868
  0
LINE
  5
263
100
AcDbEntity
  8
BLACK
  6
ByLayer
 62
  256
370
   -1
100
AcDbLine
 10
15.621
 20
-6.1862
 11
34.417
 21
-6.1862
  0
ARC
  5
264
100
AcDbEntity
  8
BLACK
  6
ByLayer
 62
  256
370
   -1
100
AcDbCircle
 10
34.417
 20
-6.2865
 40
0.10033
100
AcDbArc
 50
270
 51
90
  0
ARC
  5
265
100
AcDbEntity
  8
BLACK
  6
ByLayer
 62
  256
370
   -1
100
AcDbCircle
 10
15.621
 20
-6.2865
 40
0.10033
100
AcDbArc
 50
90
 51
270
  0
LINE
  5
266
100
AcDbEntity
  8
BLACK
  6
ByLayer
 62
  256
370
   -1
100
AcDbLine
 10
15.721
 20
-6.2865
 11
15.721
 21
-4.7625
  0
LINE
  5
267
100
AcDbEntity
  8
BLACK
  6
ByLayer
 62
  256
370
   -1
100
AcDbLine
 10
15.521
 20
-6.2865
 11
15.521
 21
-4.7625
  0
ARC
  5
268
100
AcDbEntity
  8
BLACK
  6
ByLayer
 62
  256
370
   -1
100
AcDbCircle
 10
15.621
 20
-4.7625
 40
0.10033
100
AcDbArc
 50
0
 51
180
  0
ARC
  5
269
100
AcDbEntity
  8
BLACK
  6
ByLayer
 62
  256
370
   -1
100
AcDbCircle
 10
15.621
 20
-6.2865
 40
0.10033
100
AcDbArc
 50
180
 51
0
  0
LINE
  5
26A
100
AcDbEntity
  8
BLACK
  6
ByLayer
 62
  256
370
   -1
100
AcDbLine
 10
9.398
 20
-4.8628
 11
40.64
 21
-4.8628
  0
LINE
  5
26B
100
AcDbEntity
  8
BLACK
  6
ByLayer
 62
  256
370
   -1
100
AcDbLine
 10
9.398
 20
-4.6622
 11
40.64
 21
-4.6622
  0
ARC
  5
26C
100
AcDbEntity
  8
BLACK
  6
ByLayer
 62
  256
370
   -1
100
AcDbCircle
 10
40.64
 20
-4.7625
 40
0.10033
100
AcDbArc
 50
270
 51
90
  0
ARC
  5
26D
100
AcDbEntity
  8
BLACK
  6
ByLayer
 62
  256
370
   -1
100
AcDbCircle
 10
9.398
 20
-4.7625
 40
0.10033
100
AcDbArc
 50
90
 51
270
  0
LINE
  5
26E
100
AcDbEntity
  8
BLACK
  6
ByLayer
 62
  256
370
   -1
100
AcDbLine
 10
9.398
 20
-0.2908
 11
40.64
 21
-0.2908
  0
LINE
  5
26F
100
AcDbEntity
  8
BLACK
  6
ByLayer
 62
  256
370
   -1
100
AcDbLine
 10
9.398
 20
-0.0902
 11
40.64
 21
-0.0902
  0
ARC
  5
270
100
AcDbEntity
  8
BLACK
  6
ByLayer
 62
  256
370
   -1
100
AcDbCircle
 10
40.64
 20
-0.1905
 40
0.10033
100
AcDbArc
 50
270
 51
90
  0
ARC
  5
271
100
AcDbEntity
  8
BLACK
  6
ByLayer
 62
  256
370
   -1
100
AcDbCircle
 10
9.398
 20
-0.1905
 40
0.10033
100
AcDbArc
 50
90
 51
270
  0
LINE
  5
272
100
AcDbEntity
  8
BLACK
  6
ByLayer
 62
  256
370
   -1
100
AcDbLine
 10
40.74
 20
-15.1765
 11
40.74
 21
-0.1905
  0
LINE
  5
273
100
AcDbEntity
  8
BLACK
  6
ByLayer
 62
  256
370
   -1
100
AcDbLine
 10
40.54
 20
-15.1765
 11
40.54
 21
-0.1905
  0
ARC
  5
274
100
AcDbEntity
  8
BLACK
  6
ByLayer
 62
  256
370
   -1
100
AcDbCircle
 10
40.64
 20
-0.1905
 40
0.10033
100
AcDbArc
 50
0
 51
180
  0
ARC
  5
275
100
AcDbEntity
  8
BLACK
  6
ByLayer
 62
  256
370
   -1
100
AcDbCircle
 10
40.64
 20
-15.1765
 40
0.10033
100
AcDbArc
 50
180
 51
0
  0
LINE
  5
276
100
AcDbEntity
  8
BLACK
  6
ByLayer
 62
  256
370
   -1
100
AcDbLine
 10
9.398
 20
-15.2768
 11
40.64
 21
-15.2768
  0
LINE
  5
277
100
AcDbEntity
  8
BLACK
  6
ByLayer
 62
  256
370
   -1
100
AcDbLine
 10
9.398
 20
-15.0762
 11
40.64
 21
-15.0762
  0
ARC
  5
278
100
AcDbEntity
  8
BLACK
  6
ByLayer
 62
  256
370
   -1
100
AcDbCircle
 10
40.64
 20
-15.1765
 40
0.10033
100
AcDbArc
 50
270
 51
90
  0
ARC
  5
279
100
AcDbEntity
  8
BLACK
  6
ByLayer
 62
  256
370
   -1
100
AcDbCircle
 10
9.398
 20
-15.1765
 40
0.10033
100
AcDbArc
 50
90
 51
270
  0
LINE
  5
27A
100
AcDbEntity
  8
BLACK
  6
ByLayer
 62
  256
370
   -1
100
AcDbLine
 10
9.497999999999999
 20
-15.1765
 11
9.497999999999999
 21
-0.1905
  0
LINE
  5
27B
100
AcDbEntity
  8
BLACK
  6
ByLayer
 62
  256
370
   -1
100
AcDbLine
 10
9.298
 20
-15.1765
 11
9.298
 21
-0.1905
  0
ARC
  5
27C
100
AcDbEntity
  8
BLACK
  6
ByLayer
 62
  256
370
   -1
100
AcDbCircle
 10
9.398
 20
-0.1905
 40
0.10033
100
AcDbArc
 50
0
 51
180
  0
ARC
  5
27D
100
AcDbEntity
  8
BLACK
  6
ByLayer
 62
  256
370
   -1
100
AcDbCircle
 10
9.398
 20
-15.1765
 40
0.10033
100
AcDbArc
 50
180
 51
0
  0
LINE
  5
27E
100
AcDbEntity
  8
BLACK
  6
ByLayer
 62
  256
370
   -1
100
AcDbLine
 10
96.774
 20
-41.2369
 11
99.31399999999999
 21
-41.2369
  0
LINE
  5
27F
100
AcDbEntity
  8
BLACK
  6
ByLayer
 62
  256
370
   -1
100
AcDbLine
 10
96.774
 20
-40.9321
 11
99.31399999999999
 21
-40.9321
  0
ARC
  5
280
100
AcDbEntity
  8
BLACK
  6
ByLayer
 62
  256
370
   -1
100
AcDbCircle
 10
99.31399999999999
 20
-41.0845
 40
0.1524
100
AcDbArc
 50
270
 51
90
  0
ARC
  5
281
100
AcDbEntity
  8
BLACK
  6
ByLayer
 62
  256
370
   -1
100
AcDbCircle
 10
96.774
 20
-41.0845
 40
0.1524
100
AcDbArc
 50
90
 51
270
  0
LINE
  5
282
100
AcDbEntity
  8
BLACK
  6
ByLayer
 62
  256
370
   -1
100
AcDbLine
 10
99.46599999999999
 20
-66.4845
 11
99.46599999999999
 21
-41.0845
  0
LINE
  5
283
100
AcDbEntity
  8
BLACK
  6
ByLayer
 62
  256
370
   -1
100
AcDbLine
 10
99.16200000000001
 20
-66.4845
 11
99.16200000000001
 21
-41.0845
  0
ARC
  5
284
100
AcDbEntity
  8
BLACK
  6
ByLayer
 62
  256
370
   -1
100
AcDbCircle
 10
99.31399999999999
 20
-41.0845
 40
0.1524
100
AcDbArc
 50
0
 51
180
  0
ARC
  5
285
100
AcDbEntity
  8
BLACK
  6
ByLayer
 62
  256
370
   -1
100
AcDbCircle
 10
99.31399999999999
 20
-66.4845
 40
0.1524
100
AcDbArc
 50
180
 51
0
  0
LINE
  5
286
100
AcDbEntity
  8
BLACK
  6
ByLayer
 62
  256
370
   -1
100
AcDbLine
 10
96.774
 20
-66.6365
 11
99.31399999999999
 21
-66.6365
  0
LINE
  5
287
100
AcDbEntity
  8
BLACK
  6
ByLayer
 62
  256
370
   -1
100
AcDbLine
 10
96.774
 20
-66.3325
 11
99.31399999999999
 21
-66.3325
  0
ARC
  5
288
100
AcDbEntity
  8
BLACK
  6
ByLayer
 62
  256
370
   -1
100
AcDbCircle
 10
99.31399999999999
 20
-66.4845
 40
0.1524
100
AcDbArc
 50
270
 51
90
  0
ARC
  5
289
100
AcDbEntity
  8
BLACK
  6
ByLayer
 62
  256
370
   -1
100
AcDbCircle
 10
96.774
 20
-66.4845
 40
0.1524
100
AcDbArc
 50
90
 51
270
  0
LINE
  5
28A
100
AcDbEntity
  8
BLACK
  6
ByLayer
 62
  256
370
   -1
100
AcDbLine
 10
96.926
 20
-66.4845
 11
96.926
 21
-41.0845
  0
LINE
  5
28B
100
AcDbEntity
  8
BLACK
  6
ByLayer
 62
  256
370
   -1
100
AcDbLine
 10
96.622
 20
-66.4845
 11
96.622
 21
-41.0845
  0
ARC
  5
28C
100
AcDbEntity
  8
BLACK
  6
ByLayer
 62
  256
370
   -1
100
AcDbCircle
 10
96.774
 20
-41.0845
 40
0.1524
100
AcDbArc
 50
0
 51
180
  0
ARC
  5
28D
100
AcDbEntity
  8
BLACK
  6
ByLayer
 62
  256
370
   -1
100
AcDbCircle
 10
96.774
 20
-66.4845
 40
0.1524
100
AcDbArc
 50
180
 51
0
  0
LINE
  5
28E
100
AcDbEntity
  8
BLACK
  6
ByLayer
 62
  256
370
   -1
100
AcDbLine
 10
96.774
 20
-43.7769
 11
99.31399999999999
 21
-43.7769
  0
LINE
  5
28F
100
AcDbEntity
  8
BLACK
  6
ByLayer
 62
  256
370
   -1
100
AcDbLine
 10
96.774
 20
-43.4721
 11
99.31399999999999
 21
-43.4721
  0
ARC
  5
290
100
AcDbEntity
  8
BLACK
  6
ByLayer
 62
  256
370
   -1
100
AcDbCircle
 10
99.31399999999999
 20
-43.6245
 40
0.1524
100
AcDbArc
 50
270
 51
90
  0
ARC
  5
291
100
AcDbEntity
  8
BLACK
  6
ByLayer
 62
  256
370
   -1
100
AcDbCircle
 10
96.774
 20
-43.6245
 40
0.1524
100
AcDbArc
 50
90
 51
270
  0
CIRCLE
  5
292
100
AcDbEntity
  8
BLACK
  6
ByLayer
 62
  256
370
   -1
100
AcDbCircle
 10
98.044
 20
-25.2095
 40
3.63894
  0
CIRCLE
  5
293
100
AcDbEntity
  8
BLACK
  6
ByLayer
 62
  256
370
   -1
100
AcDbCircle
 10
98.044
 20
-85.15349999999999
 40
3.63894
  0
CIRCLE
  5
294
100
AcDbEntity
  8
BLACK
  6
ByLayer
 62
  256
370
   -1
100
AcDbCircle
 10
-1.905
 20
-85.15349999999999
 40
3.63894
  0
CIRCLE
  5
295
100
AcDbEntity
  8
BLACK
  6
ByLayer
 62
  256
370
   -1
100
AcDbCircle
 10
-1.905
 20
-25.2095
 40
3.63894
  0
LINE
  5
296
100
AcDbEntity
  8
BLACK
  6
ByLayer
 62
  256
370
   -1
100
AcDbLine
 10
8.000999999999999
 20
-22.225
 11
15.113
 21
-22.225
  0
LINE
  5
297
100
AcDbEntity
  8
BLACK
  6
ByLayer
 62
  256
370
   -1
100
AcDbLine
 10
8.000999999999999
 20
-21.844
 11
15.113
 21
-21.844
  0
ARC
  5
298
100
AcDbEntity
  8
BLACK
  6
ByLayer
 62
  256
370
   -1
100
AcDbCircle
 10
15.113
 20
-22.0345
 40
0.1905
100
AcDbArc
 50
270
 51
90
  0
ARC
  5
299
100
AcDbEntity
  8
BLACK
  6
ByLayer
 62
  256
370
   -1
100
AcDbCircle
 10
8.000999999999999
 20
-22.0345
 40
0.1905
100
AcDbArc
 50
90
 51
270
  0
LINE
  5
29A
100
AcDbEntity
  8
BLACK
  6
ByLayer
 62
  256
370
   -1
100
AcDbLine
 10
15.304
 20
-23.9395
 11
15.304
 21
-22.0345
  0
LINE
  5
29B
100
AcDbEntity
  8
BLACK
  6
ByLayer
 62
  256
370
   -1
100
AcDbLine
 10
14.923
 20
-23.9395
 11
14.923
 21
-22.0345
  0
ARC
  5
29C
100
AcDbEntity
  8
BLACK
  6
ByLayer
 62
  256
370
   -1
100
AcDbCircle
 10
15.113
 20
-22.0345
 40
0.1905
100
AcDbArc
 50
0
 51
180
  0
ARC
  5
29D
100
AcDbEntity
  8
BLACK
  6
ByLayer
 62
  256
370
   -1
100
AcDbCircle
 10
15.113
 20
-23.9395
 40
0.1905
100
AcDbArc
 50
180
 51
0
  0
LINE
  5
29E
100
AcDbEntity
  8
BLACK
  6
ByLayer
 62
  256
370
   -1
100
AcDbLine
 10
15.304
 20
-24.0665
 11
15.304
 21
-23.9395
  0
LINE
  5
29F
100
AcDbEntity
  8
BLACK
  6
ByLayer
 62
  256
370
   -1
100
AcDbLine
 10
14.923
 20
-24.0665
 11
14.923
 21
-23.9395
  0
ARC
  5
2A0
100
AcDbEntity
  8
BLACK
  6
ByLayer
 62
  256
370
   -1
100
AcDbCircle
 10
15.113
 20
-23.9395
 40
0.1905
100
AcDbArc
 50
0
 51
180
  0
ARC
  5
2A1
100
AcDbEntity
  8
BLACK
  6
ByLayer
 62
  256
370
   -1
100
AcDbCircle
 10
15.113
 20
-24.0665
 40
0.1905
100
AcDbArc
 50
180
 51
0
  0
LINE
  5
2A2
100
AcDbEntity
  8
BLACK
  6
ByLayer
 62
  256
370
   -1
100
AcDbLine
 10
8.000999999999999
 20
-24.257
 11
15.113
 21
-24.257
  0
LINE
  5
2A3
100
AcDbEntity
  8
BLACK
  6
ByLayer
 62
  256
370
   -1
100
AcDbLine
 10
8.000999999999999
 20
-23.876
 11
15.113
 21
-23.876
  0
ARC
  5
2A4
100
AcDbEntity
  8
BLACK
  6
ByLayer
 62
  256
370
   -1
100
AcDbCircle
 10
15.113
 20
-24.0665
 40
0.1905
100
AcDbArc
 50
270
 51
90
  0
ARC
  5
2A5
100
AcDbEntity
  8
BLACK
  6
ByLayer
 62
  256
370
   -1
100
AcDbCircle
 10
8.000999999999999
 20
-24.0665
 40
0.1905
100
AcDbArc
 50
90
 51
270
  0
LINE
  5
2A6
100
AcDbEntity
  8
BLACK
  6
ByLayer
 62
  256
370
   -1
100
AcDbLine
 10
8.192
 20
-24.0665
 11
8.192
 21
-22.0345
  0
LINE
  5
2A7
100
AcDbEntity
  8
BLACK
  6
ByLayer
 62
  256
370
   -1
100
AcDbLine
 10
7.811
 20
-24.0665
 11
7.811
 21
-22.0345
  0
ARC
  5
2A8
100
AcDbEntity
  8
BLACK
  6
ByLayer
 62
  256
370
   -1
100
AcDbCircle
 10
8.000999999999999
 20
-22.0345
 40
0.1905
100
AcDbArc
 50
0
 51
180
  0
ARC
  5
2A9
100
AcDbEntity
  8
BLACK
  6
ByLayer
 62
  256
370
   -1
100
AcDbCircle
 10
8.000999999999999
 20
-24.0665
 40
0.1905
100
AcDbArc
 50
180
 51
0
  0
LINE
  5
2AA
100
AcDbEntity
  8
BLACK
  6
ByLayer
 62
  256
370
   -1
100
AcDbLine
 10
6.985
 20
-30.099
 11
16.129
 21
-30.099
  0
LINE
  5
2AB
100
AcDbEntity
  8
BLACK
  6
ByLayer
 62
  256
370
   -1
100
AcDbLine
 10
6.985
 20
-29.718
 11
16.129
 21
-29.718
  0
ARC
  5
2AC
100
AcDbEntity
  8
BLACK
  6
ByLayer
 62
  256
370
   -1
100
AcDbCircle
 10
16.129
 20
-29.9085
 40
0.1905
100
AcDbArc
 50
270
 51
90
  0
ARC
  5
2AD
100
AcDbEntity
  8
BLACK
  6
ByLayer
 62
  256
370
   -1
100
AcDbCircle
 10
6.985
 20
-29.9085
 40
0.1905
100
AcDbArc
 50
90
 51
270
  0
LINE
  5
2AE
100
AcDbEntity
  8
BLACK
  6
ByLayer
 62
  256
370
   -1
100
AcDbLine
 10
6.985
 20
-16.383
 11
16.129
 21
-16.383
  0
LINE
  5
2AF
100
AcDbEntity
  8
BLACK
  6
ByLayer
 62
  256
370
   -1
100
AcDbLine
 10
6.985
 20
-16.002
 11
16.129
 21
-16.002
  0
ARC
  5
2B0
100
AcDbEntity
  8
BLACK
  6
ByLayer
 62
  256
370
   -1
100
AcDbCircle
 10
16.129
 20
-16.1925
 40
0.1905
100
AcDbArc
 50
270
 51
90
  0
ARC
  5
2B1
100
AcDbEntity
  8
BLACK
  6
ByLayer
 62
  256
370
   -1
100
AcDbCircle
 10
6.985
 20
-16.1925
 40
0.1905
100
AcDbArc
 50
90
 51
270
  0
LINE
  5
2B2
100
AcDbEntity
  8
BLACK
  6
ByLayer
 62
  256
370
   -1
100
AcDbLine
 10
16.32
 20
-16.5735
 11
16.32
 21
-15.6845
  0
LINE
  5
2B3
100
AcDbEntity
  8
BLACK
  6
ByLayer
 62
  256
370
   -1
100
AcDbLine
 10
15.939
 20
-16.5735
 11
15.939
 21
-15.6845
  0
ARC
  5
2B4
100
AcDbEntity
  8
BLACK
  6
ByLayer
 62
  256
370
   -1
100
AcDbCircle
 10
16.129
 20
-15.6845
 40
0.1905
100
AcDbArc
 50
0
 51
180
  0
ARC
  5
2B5
100
AcDbEntity
  8
BLACK
  6
ByLayer
 62
  256
370
   -1
100
AcDbCircle
 10
16.129
 20
-16.5735
 40
0.1905
100
AcDbArc
 50
180
 51
0
  0
LINE
  5
2B6
100
AcDbEntity
  8
BLACK
  6
ByLayer
 62
  256
370
   -1
100
AcDbLine
 10
17.78
 20
-18.669
 11
19.05
 21
-18.669
  0
LINE
  5
2B7
100
AcDbEntity
  8
BLACK
  6
ByLayer
 62
  256
370
   -1
100
AcDbLine
 10
17.78
 20
-18.288
 11
19.05
 21
-18.288
  0
ARC
  5
2B8
100
AcDbEntity
  8
BLACK
  6
ByLayer
 62
  256
370
   -1
100
AcDbCircle
 10
19.05
 20
-18.4785
 40
0.1905
100
AcDbArc
 50
270
 51
90
  0
ARC
  5
2B9
100
AcDbEntity
  8
BLACK
  6
ByLayer
 62
  256
370
   -1
100
AcDbCircle
 10
17.78
 20
-18.4785
 40
0.1905
100
AcDbArc
 50
90
 51
270
  0
LINE
  5
2BA
100
AcDbEntity
  8
BLACK
  6
ByLayer
 62
  256
370
   -1
100
AcDbLine
 10
7.176
 20
-16.7005
 11
7.176
 21
-15.5575
  0
LINE
  5
2BB
100
AcDbEntity
  8
BLACK
  6
ByLayer
 62
  256
370
   -1
100
AcDbLine
 10
6.795
 20
-16.7005
 11
6.795
 21
-15.5575
  0
ARC
  5
2BC
100
AcDbEntity
  8
BLACK
  6
ByLayer
 62
  256
370
   -1
100
AcDbCircle
 10
6.985
 20
-15.5575
 40
0.1905
100
AcDbArc
 50
0
 51
180
  0
ARC
  5
2BD
100
AcDbEntity
  8
BLACK
  6
ByLayer
 62
  256
370
   -1
100
AcDbCircle
 10
6.985
 20
-16.7005
 40
0.1905
100
AcDbArc
 50
180
 51
0
  0
LINE
  5
2BE
100
AcDbEntity
  8
BLACK
  6
ByLayer
 62
  256
370
   -1
100
AcDbLine
 10
4.064
 20
-18.669
 11
5.207
 21
-18.669
  0
LINE
  5
2BF
100
AcDbEntity
  8
BLACK
  6
ByLayer
 62
  256
370
   -1
100
AcDbLine
 10
4.064
 20
-18.288
 11
5.207
 21
-18.288
  0
ARC
  5
2C0
100
AcDbEntity
  8
BLACK
  6
ByLayer
 62
  256
370
   -1
100
AcDbCircle
 10
5.207
 20
-18.4785
 40
0.1905
100
AcDbArc
 50
270
 51
90
  0
ARC
  5
2C1
100
AcDbEntity
  8
BLACK
  6
ByLayer
 62
  256
370
   -1
100
AcDbCircle
 10
4.064
 20
-18.4785
 40
0.1905
100
AcDbArc
 50
90
 51
270
  0
LINE
  5
2C2
100
AcDbEntity
  8
BLACK
  6
ByLayer
 62
  256
370
   -1
100
AcDbLine
 10
4.064
 20
-27.813
 11
5.207
 21
-27.813
  0
LINE
  5
2C3
100
AcDbEntity
  8
BLACK
  6
ByLayer
 62
  256
370
   -1
100
AcDbLine
 10
4.064
 20
-27.432
 11
5.207
 21
-27.432
  0
ARC
  5
2C4
100
AcDbEntity
  8
BLACK
  6
ByLayer
 62
  256
370
   -1
100
AcDbCircle
 10
5.207
 20
-27.6225
 40
0.1905
100
AcDbArc
 50
270
 51
90
  0
ARC
  5
2C5
100
AcDbEntity
  8
BLACK
  6
ByLayer
 62
  256
370
   -1
100
AcDbCircle
 10
4.064
 20
-27.6225
 40
0.1905
100
AcDbArc
 50
90
 51
270
  0
LINE
  5
2C6
100
AcDbEntity
  8
BLACK
  6
ByLayer
 62
  256
370
   -1
100
AcDbLine
 10
7.176
 20
-30.5435
 11
7.176
 21
-29.4005
  0
LINE
  5
2C7
100
AcDbEntity
  8
BLACK
  6
ByLayer
 62
  256
370
   -1
100
AcDbLine
 10
6.795
 20
-30.5435
 11
6.795
 21
-29.4005
  0
ARC
  5
2C8
100
AcDbEntity
  8
BLACK
  6
ByLayer
 62
  256
370
   -1
100
AcDbCircle
 10
6.985
 20
-29.4005
 40
0.1905
100
AcDbArc
 50
0
 51
180
  0
ARC
  5
2C9
100
AcDbEntity
  8
BLACK
  6
ByLayer
 62
  256
370
   -1
100
AcDbCircle
 10
6.985
 20
-30.5435
 40
0.1905
100
AcDbArc
 50
180
 51
0
  0
LINE
  5
2CA
100
AcDbEntity
  8
BLACK
  6
ByLayer
 62
  256
370
   -1
100
AcDbLine
 10
17.907
 20
-27.813
 11
19.05
 21
-27.813
  0
LINE
  5
2CB
100
AcDbEntity
  8
BLACK
  6
ByLayer
 62
  256
370
   -1
100
AcDbLine
 10
17.907
 20
-27.432
 11
19.05
 21
-27.432
  0
ARC
  5
2CC
100
AcDbEntity
  8
BLACK
  6
ByLayer
 62
  256
370
   -1
100
AcDbCircle
 10
19.05
 20
-27.6225
 40
0.1905
100
AcDbArc
 50
270
 51
90
  0
ARC
  5
2CD
100
AcDbEntity
  8
BLACK
  6
ByLayer
 62
  256
370
   -1
100
AcDbCircle
 10
17.907
 20
-27.6225
 40
0.1905
100
AcDbArc
 50
90
 51
270
  0
LINE
  5
2CE
100
AcDbEntity
  8
BLACK
  6
ByLayer
 62
  256
370
   -1
100
AcDbLine
 10
16.32
 20
-30.5435
 11
16.32
 21
-29.4005
  0
LINE
  5
2CF
100
AcDbEntity
  8
BLACK
  6
ByLayer
 62
  256
370
   -1
100
AcDbLine
 10
15.939
 20
-30.5435
 11
15.939
 21
-29.4005
  0
ARC
  5
2D0
100
AcDbEntity
  8
BLACK
  6
ByLayer
 62
  256
370
   -1
100
AcDbCircle
 10
16.129
 20
-29.4005
 40
0.1905
100
AcDbArc
 50
0
 51
180
  0
ARC
  5
2D1
100
AcDbEntity
  8
BLACK
  6
ByLayer
 62
  256
370
   -1
100
AcDbCircle
 10
16.129
 20
-30.5435
 40
0.1905
100
AcDbArc
 50
180
 51
0
  0
ARC
  5
2D2
100
AcDbEntity
  8
BLACK
  6
ByLayer
 62
  256
370
   -1
100
AcDbCircle
 10
17.907
 20
-29.4005
 40
1.778
100
AcDbArc
 50
90
 51
180
  0
ARC
  5
2D3
100
AcDbEntity
  8
BLACK
  6
ByLayer
 62
  256
370
   -1
100
AcDbCircle
 10
5.207
 20
-29.4005
 40
1.778
100
AcDbArc
 50
0
 51
90
  0
ARC
  5
2D4
100
AcDbEntity
  8
BLACK
  6
ByLayer
 62
  256
370
   -1
100
AcDbCircle
 10
17.907
 20
-16.7005
 40
1.78253
100
AcDbArc
 50
175.9
 51
265.9
  0
ARC
  5
2D5
100
AcDbEntity
  8
BLACK
  6
ByLayer
 62
  256
370
   -1
100
AcDbCircle
 10
5.207
 20
-16.7005
 40
1.778
100
AcDbArc
 50
270
 51
0
  0
LINE
  5
2D6
100
AcDbEntity
  8
BLACK
  6
ByLayer
 62
  256
370
   -1
100
AcDbLine
 10
19.241
 20
-30.5435
 11
19.241
 21
-15.5575
  0
LINE
  5
2D7
100
AcDbEntity
  8
BLACK
  6
ByLayer
 62
  256
370
   -1
100
AcDbLine
 10
18.86
 20
-30.5435
 11
18.86
 21
-15.5575
  0
ARC
  5
2D8
100
AcDbEntity
  8
BLACK
  6
ByLayer
 62
  256
370
   -1
100
AcDbCircle
 10
19.05
 20
-15.5575
 40
0.1905
100
AcDbArc
 50
0
 51
180
  0
ARC
  5
2D9
100
AcDbEntity
  8
BLACK
  6
ByLayer
 62
  256
370
   -1
100
AcDbCircle
 10
19.05
 20
-30.5435
 40
0.1905
100
AcDbArc
 50
180
 51
0
  0
LINE
  5
2DA
100
AcDbEntity
  8
BLACK
  6
ByLayer
 62
  256
370
   -1
100
AcDbLine
 10
4.064
 20
-15.748
 11
19.05
 21
-15.748
  0
LINE
  5
2DB
100
AcDbEntity
  8
BLACK
  6
ByLayer
 62
  256
370
   -1
100
AcDbLine
 10
4.064
 20
-15.367
 11
19.05
 21
-15.367
  0
ARC
  5
2DC
100
AcDbEntity
  8
BLACK
  6
ByLayer
 62
  256
370
   -1
100
AcDbCircle
 10
19.05
 20
-15.5575
 40
0.1905
100
AcDbArc
 50
270
 51
90
  0
ARC
  5
2DD
100
AcDbEntity
  8
BLACK
  6
ByLayer
 62
  256
370
   -1
100
AcDbCircle
 10
4.064
 20
-15.5575
 40
0.1905
100
AcDbArc
 50
90
 51
270
  0
LINE
  5
2DE
100
AcDbEntity
  8
BLACK
  6
ByLayer
 62
  256
370
   -1
100
AcDbLine
 10
4.255
 20
-30.5435
 11
4.255
 21
-15.5575
  0
LINE
  5
2DF
100
AcDbEntity
  8
BLACK
  6
ByLayer
 62
  256
370
   -1
100
AcDbLine
 10
3.874
 20
-30.5435
 11
3.874
 21
-15.5575
  0
ARC
  5
2E0
100
AcDbEntity
  8
BLACK
  6
ByLayer
 62
  256
370
   -1
100
AcDbCircle
 10
4.064
 20
-15.5575
 40
0.1905
100
AcDbArc
 50
0
 51
180
  0
ARC
  5
2E1
100
AcDbEntity
  8
BLACK
  6
ByLayer
 62
  256
370
   -1
100
AcDbCircle
 10
4.064
 20
-30.5435
 40
0.1905
100
AcDbArc
 50
180
 51
0
  0
LINE
  5
2E2
100
AcDbEntity
  8
BLACK
  6
ByLayer
 62
  256
370
   -1
100
AcDbLine
 10
4.064
 20
-30.734
 11
19.05
 21
-30.734
  0
LINE
  5
2E3
100
AcDbEntity
  8
BLACK
  6
ByLayer
 62
  256
370
   -1
100
AcDbLine
 10
4.064
 20
-30.353
 11
19.05
 21
-30.353
  0
ARC
  5
2E4
100
AcDbEntity
  8
BLACK
  6
ByLayer
 62
  256
370
   -1
100
AcDbCircle
 10
19.05
 20
-30.5435
 40
0.1905
100
AcDbArc
 50
270
 51
90
  0
ARC
  5
2E5
100
AcDbEntity
  8
BLACK
  6
ByLayer
 62
  256
370
   -1
100
AcDbCircle
 10
4.064
 20
-30.5435
 40
0.1905
100
AcDbArc
 50
90
 51
270
  0
LINE
  5
2E6
100
AcDbEntity
  8
BLACK
  6
ByLayer
 62
  256
370
   -1
100
AcDbLine
 10
30.988
 20
-22.225
 11
38.1
 21
-22.225
  0
LINE
  5
2E7
100
AcDbEntity
  8
BLACK
  6
ByLayer
 62
  256
370
   -1
100
AcDbLine
 10
30.988
 20
-21.844
 11
38.1
 21
-21.844
  0
ARC
  5
2E8
100
AcDbEntity
  8
BLACK
  6
ByLayer
 62
  256
370
   -1
100
AcDbCircle
 10
38.1
 20
-22.0345
 40
0.1905
100
AcDbArc
 50
270
 51
90
  0
ARC
  5
2E9
100
AcDbEntity
  8
BLACK
  6
ByLayer
 62
  256
370
   -1
100
AcDbCircle
 10
30.988
 20
-22.0345
 40
0.1905
100
AcDbArc
 50
90
 51
270
  0
LINE
  5
2EA
100
AcDbEntity
  8
BLACK
  6
ByLayer
 62
  256
370
   -1
100
AcDbLine
 10
38.291
 20
-23.9395
 11
38.291
 21
-22.0345
  0
LINE
  5
2EB
100
AcDbEntity
  8
BLACK
  6
ByLayer
 62
  256
370
   -1
100
AcDbLine
 10
37.91
 20
-23.9395
 11
37.91
 21
-22.0345
  0
ARC
  5
2EC
100
AcDbEntity
  8
BLACK
  6
ByLayer
 62
  256
370
   -1
100
AcDbCircle
 10
38.1
 20
-22.0345
 40
0.1905
100
AcDbArc
 50
0
 51
180
  0
ARC
  5
2ED
100
AcDbEntity
  8
BLACK
  6
ByLayer
 62
  256
370
   -1
100
AcDbCircle
 10
38.1
 20
-23.9395
 40
0.1905
100
AcDbArc
 50
180
 51
0
  0
LINE
  5
2EE
100
AcDbEntity
  8
BLACK
  6
ByLayer
 62
  256
370
   -1
100
AcDbLine
 10
38.291
 20
-24.0665
 11
38.291
 21
-23.9395
  0
LINE
  5
2EF
100
AcDbEntity
  8
BLACK
  6
ByLayer
 62
  256
370
   -1
100
AcDbLine
 10
37.91
 20
-24.0665
 11
37.91
 21
-23.9395
  0
ARC
  5
2F0
100
AcDbEntity
  8
BLACK
  6
ByLayer
 62
  256
370
   -1
100
AcDbCircle
 10
38.1
 20
-23.9395
 40
0.1905
100
AcDbArc
 50
0
 51
180
  0
ARC
  5
2F1
100
AcDbEntity
  8
BLACK
  6
ByLayer
 62
  256
370
   -1
100
AcDbCircle
 10
38.1
 20
-24.0665
 40
0.1905
100
AcDbArc
 50
180
 51
0
  0
LINE
  5
2F2
100
AcDbEntity
  8
BLACK
  6
ByLayer
 62
  256
370
   -1
100
AcDbLine
 10
30.988
 20
-24.257
 11
38.1
 21
-24.257
  0
LINE
  5
2F3
100
AcDbEntity
  8
BLACK
  6
ByLayer
 62
  256
370
   -1
100
AcDbLine
 10
30.988
 20
-23.876
 11
38.1
 21
-23.876
  0
ARC
  5
2F4
100
AcDbEntity
  8
BLACK
  6
ByLayer
 62
  256
370
   -1
100
AcDbCircle
 10
38.1
 20
-24.0665
 40
0.1905
100
AcDbArc
 50
270
 51
90
  0
ARC
  5
2F5
100
AcDbEntity
  8
BLACK
  6
ByLayer
 62
  256
370
   -1
100
AcDbCircle
 10
30.988
 20
-24.0665
 40
0.1905
100
AcDbArc
 50
90
 51
270
  0
LINE
  5
2F6
100
AcDbEntity
  8
BLACK
  6
ByLayer
 62
  256
370
   -1
100
AcDbLine
 10
31.179
 20
-24.0665
 11
31.179
 21
-22.0345
  0
LINE
  5
2F7
100
AcDbEntity
  8
BLACK
  6
ByLayer
 62
  256
370
   -1
100
AcDbLine
 10
30.798
 20
-24.0665
 11
30.798
 21
-22.0345
  0
ARC
  5
2F8
100
AcDbEntity
  8
BLACK
  6
ByLayer
 62
  256
370
   -1
100
AcDbCircle
 10
30.988
 20
-22.0345
 40
0.1905
100
AcDbArc
 50
0
 51
180
  0
ARC
  5
2F9
100
AcDbEntity
  8
BLACK
  6
ByLayer
 62
  256
370
   -1
100
AcDbCircle
 10
30.988
 20
-24.0665
 40
0.1905
100
AcDbArc
 50
180
 51
0
  0
LINE
  5
2FA
100
AcDbEntity
  8
BLACK
  6
ByLayer
 62
  256
370
   -1
100
AcDbLine
 10
29.972
 20
-30.099
 11
39.116
 21
-30.099
  0
LINE
  5
2FB
100
AcDbEntity
  8
BLACK
  6
ByLayer
 62
  256
370
   -1
100
AcDbLine
 10
29.972
 20
-29.718
 11
39.116
 21
-29.718
  0
ARC
  5
2FC
100
AcDbEntity
  8
BLACK
  6
ByLayer
 62
  256
370
   -1
100
AcDbCircle
 10
39.116
 20
-29.9085
 40
0.1905
100
AcDbArc
 50
270
 51
90
  0
ARC
  5
2FD
100
AcDbEntity
  8
BLACK
  6
ByLayer
 62
  256
370
   -1
100
AcDbCircle
 10
29.972
 20
-29.9085
 40
0.1905
100
AcDbArc
 50
90
 51
270
  0
LINE
  5
2FE
100
AcDbEntity
  8
BLACK
  6
ByLayer
 62
  256
370
   -1
100
AcDbLine
 10
29.972
 20
-16.383
 11
39.116
 21
-16.383
  0
LINE
  5
2FF
100
AcDbEntity
  8
BLACK
  6
ByLayer
 62
  256
370
   -1
100
AcDbLine
 10
29.972
 20
-16.002
 11
39.116
 21
-16.002
  0
ARC
  5
300
100
AcDbEntity
  8
BLACK
  6
ByLayer
 62
  256
370
   -1
100
AcDbCircle
 10
39.116
 20
-16.1925
 40
0.1905
100
AcDbArc
 50
270
 51
90
  0
ARC
  5
301
100
AcDbEntity
  8
BLACK
  6
ByLayer
 62
  256
370
   -1
100
AcDbCircle
 10
29.972
 20
-16.1925
 40
0.1905
100
AcDbArc
 50
90
 51
270
  0
LINE
  5
302
100
AcDbEntity
  8
BLACK
  6
ByLayer
 62
  256
370
   -1
100
AcDbLine
 10
39.307
 20
-16.5735
 11
39.307
 21
-15.6845
  0
LINE
  5
303
100
AcDbEntity
  8
BLACK
  6
ByLayer
 62
  256
370
   -1
100
AcDbLine
 10
38.926
 20
-16.5735
 11
38.926
 21
-15.6845
  0
ARC
  5
304
100
AcDbEntity
  8
BLACK
  6
ByLayer
 62
  256
370
   -1
100
AcDbCircle
 10
39.116
 20
-15.6845
 40
0.1905
100
AcDbArc
 50
0
 51
180
  0
ARC
  5
305
100
AcDbEntity
  8
BLACK
  6
ByLayer
 62
  256
370
   -1
100
AcDbCircle
 10
39.116
 20
-16.5735
 40
0.1905
100
AcDbArc
 50
180
 51
0
  0
LINE
  5
306
100
AcDbEntity
  8
BLACK
  6
ByLayer
 62
  256
370
   -1
100
AcDbLine
 10
40.767
 20
-18.669
 11
42.037
 21
-18.669
  0
LINE
  5
307
100
AcDbEntity
  8
BLACK
  6
ByLayer
 62
  256
370
   -1
100
AcDbLine
 10
40.767
 20
-18.288
 11
42.037
 21
-18.288
  0
ARC
  5
308
100
AcDbEntity
  8
BLACK
  6
ByLayer
 62
  256
370
   -1
100
AcDbCircle
 10
42.037
 20
-18.4785
 40
0.1905
100
AcDbArc
 50
270
 51
90
  0
ARC
  5
309
100
AcDbEntity
  8
BLACK
  6
ByLayer
 62
  256
370
   -1
100
AcDbCircle
 10
40.767
 20
-18.4785
 40
0.1905
100
AcDbArc
 50
90
 51
270
  0
LINE
  5
30A
100
AcDbEntity
  8
BLACK
  6
ByLayer
 62
  256
370
   -1
100
AcDbLine
 10
30.163
 20
-16.7005
 11
30.163
 21
-15.5575
  0
LINE
  5
30B
100
AcDbEntity
  8
BLACK
  6
ByLayer
 62
  256
370
   -1
100
AcDbLine
 10
29.782
 20
-16.7005
 11
29.782
 21
-15.5575
  0
ARC
  5
30C
100
AcDbEntity
  8
BLACK
  6
ByLayer
 62
  256
370
   -1
100
AcDbCircle
 10
29.972
 20
-15.5575
 40
0.1905
100
AcDbArc
 50
0
 51
180
  0
ARC
  5
30D
100
AcDbEntity
  8
BLACK
  6
ByLayer
 62
  256
370
   -1
100
AcDbCircle
 10
29.972
 20
-16.7005
 40
0.1905
100
AcDbArc
 50
180
 51
0
  0
LINE
  5
30E
100
AcDbEntity
  8
BLACK
  6
ByLayer
 62
  256
370
   -1
100
AcDbLine
 10
27.051
 20
-18.669
 11
28.194
 21
-18.669
  0
LINE
  5
30F
100
AcDbEntity
  8
BLACK
  6
ByLayer
 62
  256
370
   -1
100
AcDbLine
 10
27.051
 20
-18.288
 11
28.194
 21
-18.288
  0
ARC
  5
310
100
AcDbEntity
  8
BLACK
  6
ByLayer
 62
  256
370
   -1
100
AcDbCircle
 10
28.194
 20
-18.4785
 40
0.1905
100
AcDbArc
 50
270
 51
90
  0
ARC
  5
311
100
AcDbEntity
  8
BLACK
  6
ByLayer
 62
  256
370
   -1
100
AcDbCircle
 10
27.051
 20
-18.4785
 40
0.1905
100
AcDbArc
 50
90
 51
270
  0
LINE
  5
312
100
AcDbEntity
  8
BLACK
  6
ByLayer
 62
  256
370
   -1
100
AcDbLine
 10
27.051
 20
-27.813
 11
28.194
 21
-27.813
  0
LINE
  5
313
100
AcDbEntity
  8
BLACK
  6
ByLayer
 62
  256
370
   -1
100
AcDbLine
 10
27.051
 20
-27.432
 11
28.194
 21
-27.432
  0
ARC
  5
314
100
AcDbEntity
  8
BLACK
  6
ByLayer
 62
  256
370
   -1
100
AcDbCircle
 10
28.194
 20
-27.6225
 40
0.1905
100
AcDbArc
 50
270
 51
90
  0
ARC
  5
315
100
AcDbEntity
  8
BLACK
  6
ByLayer
 62
  256
370
   -1
100
AcDbCircle
 10
27.051
 20
-27.6225
 40
0.1905
100
AcDbArc
 50
90
 51
270
  0
LINE
  5
316
100
AcDbEntity
  8
BLACK
  6
ByLayer
 62
  256
370
   -1
100
AcDbLine
 10
30.163
 20
-30.5435
 11
30.163
 21
-29.4005
  0
LINE
  5
317
100
AcDbEntity
  8
BLACK
  6
ByLayer
 62
  256
370
   -1
100
AcDbLine
 10
29.782
 20
-30.5435
 11
29.782
 21
-29.4005
  0
ARC
  5
318
100
AcDbEntity
  8
BLACK
  6
ByLayer
 62
  256
370
   -1
100
AcDbCircle
 10
29.972
 20
-29.4005
 40
0.1905
100
AcDbArc
 50
0
 51
180
  0
ARC
  5
319
100
AcDbEntity
  8
BLACK
  6
ByLayer
 62
  256
370
   -1
100
AcDbCircle
 10
29.972
 20
-30.5435
 40
0.1905
100
AcDbArc
 50
180
 51
0
  0
LINE
  5
31A
100
AcDbEntity
  8
BLACK
  6
ByLayer
 62
  256
370
   -1
100
AcDbLine
 10
40.894
 20
-27.813
 11
42.037
 21
-27.813
  0
LINE
  5
31B
100
AcDbEntity
  8
BLACK
  6
ByLayer
 62
  256
370
   -1
100
AcDbLine
 10
40.894
 20
-27.432
 11
42.037
 21
-27.432
  0
ARC
  5
31C
100
AcDbEntity
  8
BLACK
  6
ByLayer
 62
  256
370
   -1
100
AcDbCircle
 10
42.037
 20
-27.6225
 40
0.1905
100
AcDbArc
 50
270
 51
90
  0
ARC
  5
31D
100
AcDbEntity
  8
BLACK
  6
ByLayer
 62
  256
370
   -1
100
AcDbCircle
 10
40.894
 20
-27.6225
 40
0.1905
100
AcDbArc
 50
90
 51
270
  0
LINE
  5
31E
100
AcDbEntity
  8
BLACK
  6
ByLayer
 62
  256
370
   -1
100
AcDbLine
 10
39.307
 20
-30.5435
 11
39.307
 21
-29.4005
  0
LINE
  5
31F
100
AcDbEntity
  8
BLACK
  6
ByLayer
 62
  256
370
   -1
100
AcDbLine
 10
38.926
 20
-30.5435
 11
38.926
 21
-29.4005
  0
ARC
  5
320
100
AcDbEntity
  8
BLACK
  6
ByLayer
 62
  256
370
   -1
100
AcDbCircle
 10
39.116
 20
-29.4005
 40
0.1905
100
AcDbArc
 50
0
 51
180
  0
ARC
  5
321
100
AcDbEntity
  8
BLACK
  6
ByLayer
 62
  256
370
   -1
100
AcDbCircle
 10
39.116
 20
-30.5435
 40
0.1905
100
AcDbArc
 50
180
 51
0
  0
ARC
  5
322
100
AcDbEntity
  8
BLACK
  6
ByLayer
 62
  256
370
   -1
100
AcDbCircle
 10
40.894
 20
-29.4005
 40
1.778
100
AcDbArc
 50
90
 51
180
  0
ARC
  5
323
100
AcDbEntity
  8
BLACK
  6
ByLayer
 62
  256
370
   -1
100
AcDbCircle
 10
28.194
 20
-29.4005
 40
1.778
100
AcDbArc
 50
0
 51
90
  0
ARC
  5
324
100
AcDbEntity
  8
BLACK
  6
ByLayer
 62
  256
370
   -1
100
AcDbCircle
 10
40.894
 20
-16.7005
 40
1.78253
100
AcDbArc
 50
175.9
 51
265.9
  0
ARC
  5
325
100
AcDbEntity
  8
BLACK
  6
ByLayer
 62
  256
370
   -1
100
AcDbCircle
 10
28.194
 20
-16.7005
 40
1.778
100
AcDbArc
 50
270
 51
0
  0
LINE
  5
326
100
AcDbEntity
  8
BLACK
  6
ByLayer
 62
  256
370
   -1
100
AcDbLine
 10
42.228
 20
-30.5435
 11
42.228
 21
-15.5575
  0
LINE
  5
327
100
AcDbEntity
  8
BLACK
  6
ByLayer
 62
  256
370
   -1
100
AcDbLine
 10
41.847
 20
-30.5435
 11
41.847
 21
-15.5575
  0
ARC
  5
328
100
AcDbEntity
  8
BLACK
  6
ByLayer
 62
  256
370
   -1
100
AcDbCircle
 10
42.037
 20
-15.5575
 40
0.1905
100
AcDbArc
 50
0
 51
180
  0
ARC
  5
329
100
AcDbEntity
  8
BLACK
  6
ByLayer
 62
  256
370
   -1
100
AcDbCircle
 10
42.037
 20
-30.5435
 40
0.1905
100
AcDbArc
 50
180
 51
0
  0
LINE
  5
32A
100
AcDbEntity
  8
BLACK
  6
ByLayer
 62
  256
370
   -1
100
AcDbLine
 10
27.051
 20
-15.748
 11
42.037
 21
-15.748
  0
LINE
  5
32B
100
AcDbEntity
  8
BLACK
  6
ByLayer
 62
  256
370
   -1
100
AcDbLine
 10
27.051
 20
-15.367
 11
42.037
 21
-15.367
  0
ARC
  5
32C
100
AcDbEntity
  8
BLACK
  6
ByLayer
 62
  256
370
   -1
100
AcDbCircle
 10
42.037
 20
-15.5575
 40
0.1905
100
AcDbArc
 50
270
 51
90
  0
ARC
  5
32D
100
AcDbEntity
  8
BLACK
  6
ByLayer
 62
  256
370
   -1
100
AcDbCircle
 10
27.051
 20
-15.5575
 40
0.1905
100
AcDbArc
 50
90
 51
270
  0
LINE
  5
32E
100
AcDbEntity
  8
BLACK
  6
ByLayer
 62
  256
370
   -1
100
AcDbLine
 10
27.242
 20
-30.5435
 11
27.242
 21
-15.5575
  0
LINE
  5
32F
100
AcDbEntity
  8
BLACK
  6
ByLayer
 62
  256
370
   -1
100
AcDbLine
 10
26.861
 20
-30.5435
 11
26.861
 21
-15.5575
  0
ARC
  5
330
100
AcDbEntity
  8
BLACK
  6
ByLayer
 62
  256
370
   -1
100
AcDbCircle
 10
27.051
 20
-15.5575
 40
0.1905
100
AcDbArc
 50
0
 51
180
  0
ARC
  5
331
100
AcDbEntity
  8
BLACK
  6
ByLayer
 62
  256
370
   -1
100
AcDbCircle
 10
27.051
 20
-30.5435
 40
0.1905
100
AcDbArc
 50
180
 51
0
  0
LINE
  5
332
100
AcDbEntity
  8
BLACK
  6
ByLayer
 62
  256
370
   -1
100
AcDbLine
 10
27.051
 20
-30.734
 11
42.037
 21
-30.734
  0
LINE
  5
333
100
AcDbEntity
  8
BLACK
  6
ByLayer
 62
  256
370
   -1
100
AcDbLine
 10
27.051
 20
-30.353
 11
42.037
 21
-30.353
  0
ARC
  5
334
100
AcDbEntity
  8
BLACK
  6
ByLayer
 62
  256
370
   -1
100
AcDbCircle
 10
42.037
 20
-30.5435
 40
0.1905
100
AcDbArc
 50
270
 51
90
  0
ARC
  5
335
100
AcDbEntity
  8
BLACK
  6
ByLayer
 62
  256
370
   -1
100
AcDbCircle
 10
27.051
 20
-30.5435
 40
0.1905
100
AcDbArc
 50
90
 51
270
  0
LINE
  5
336
100
AcDbEntity
  8
BLACK
  6
ByLayer
 62
  256
370
   -1
100
AcDbLine
 10
58.039
 20
-22.225
 11
65.151
 21
-22.225
  0
LINE
  5
337
100
AcDbEntity
  8
BLACK
  6
ByLayer
 62
  256
370
   -1
100
AcDbLine
 10
58.039
 20
-21.844
 11
65.151
 21
-21.844
  0
ARC
  5
338
100
AcDbEntity
  8
BLACK
  6
ByLayer
 62
  256
370
   -1
100
AcDbCircle
 10
65.151
 20
-22.0345
 40
0.1905
100
AcDbArc
 50
270
 51
90
  0
ARC
  5
339
100
AcDbEntity
  8
BLACK
  6
ByLayer
 62
  256
370
   -1
100
AcDbCircle
 10
58.039
 20
-22.0345
 40
0.1905
100
AcDbArc
 50
90
 51
270
  0
LINE
  5
33A
100
AcDbEntity
  8
BLACK
  6
ByLayer
 62
  256
370
   -1
100
AcDbLine
 10
65.342
 20
-23.9395
 11
65.342
 21
-22.0345
  0
LINE
  5
33B
100
AcDbEntity
  8
BLACK
  6
ByLayer
 62
  256
370
   -1
100
AcDbLine
 10
64.961
 20
-23.9395
 11
64.961
 21
-22.0345
  0
ARC
  5
33C
100
AcDbEntity
  8
BLACK
  6
ByLayer
 62
  256
370
   -1
100
AcDbCircle
 10
65.151
 20
-22.0345
 40
0.1905
100
AcDbArc
 50
0
 51
180
  0
ARC
  5
33D
100
AcDbEntity
  8
BLACK
  6
ByLayer
 62
  256
370
   -1
100
AcDbCircle
 10
65.151
 20
-23.9395
 40
0.1905
100
AcDbArc
 50
180
 51
0
  0
LINE
  5
33E
100
AcDbEntity
  8
BLACK
  6
ByLayer
 62
  256
370
   -1
100
AcDbLine
 10
65.342
 20
-24.0665
 11
65.342
 21
-23.9395
  0
LINE
  5
33F
100
AcDbEntity
  8
BLACK
  6
ByLayer
 62
  256
370
   -1
100
AcDbLine
 10
64.961
 20
-24.0665
 11
64.961
 21
-23.9395
  0
ARC
  5
340
100
AcDbEntity
  8
BLACK
  6
ByLayer
 62
  256
370
   -1
100
AcDbCircle
 10
65.151
 20
-23.9395
 40
0.1905
100
AcDbArc
 50
0
 51
180
  0
ARC
  5
341
100
AcDbEntity
  8
BLACK
  6
ByLayer
 62
  256
370
   -1
100
AcDbCircle
 10
65.151
 20
-24.0665
 40
0.1905
100
AcDbArc
 50
180
 51
0
  0
LINE
  5
342
100
AcDbEntity
  8
BLACK
  6
ByLayer
 62
  256
370
   -1
100
AcDbLine
 10
58.039
 20
-24.257
 11
65.151
 21
-24.257
  0
LINE
  5
343
100
AcDbEntity
  8
BLACK
  6
ByLayer
 62
  256
370
   -1
100
AcDbLine
 10
58.039
 20
-23.876
 11
65.151
 21
-23.876
  0
ARC
  5
344
100
AcDbEntity
  8
BLACK
  6
ByLayer
 62
  256
370
   -1
100
AcDbCircle
 10
65.151
 20
-24.0665
 40
0.1905
100
AcDbArc
 50
270
 51
90
  0
ARC
  5
345
100
AcDbEntity
  8
BLACK
  6
ByLayer
 62
  256
370
   -1
100
AcDbCircle
 10
58.039
 20
-24.0665
 40
0.1905
100
AcDbArc
 50
90
 51
270
  0
LINE
  5
346
100
AcDbEntity
  8
BLACK
  6
ByLayer
 62
  256
370
   -1
100
AcDbLine
 10
58.23
 20
-24.0665
 11
58.23
 21
-22.0345
  0
LINE
  5
347
100
AcDbEntity
  8
BLACK
  6
ByLayer
 62
  256
370
   -1
100
AcDbLine
 10
57.849
 20
-24.0665
 11
57.849
 21
-22.0345
  0
ARC
  5
348
100
AcDbEntity
  8
BLACK
  6
ByLayer
 62
  256
370
   -1
100
AcDbCircle
 10
58.039
 20
-22.0345
 40
0.1905
100
AcDbArc
 50
0
 51
180
  0
ARC
  5
349
100
AcDbEntity
  8
BLACK
  6
ByLayer
 62
  256
370
   -1
100
AcDbCircle
 10
58.039
 20
-24.0665
 40
0.1905
100
AcDbArc
 50
180
 51
0
  0
LINE
  5
34A
100
AcDbEntity
  8
BLACK
  6
ByLayer
 62
  256
370
   -1
100
AcDbLine
 10
57.023
 20
-30.099
 11
66.167
 21
-30.099
  0
LINE
  5
34B
100
AcDbEntity
  8
BLACK
  6
ByLayer
 62
  256
370
   -1
100
AcDbLine
 10
57.023
 20
-29.718
 11
66.167
 21
-29.718
  0
ARC
  5
34C
100
AcDbEntity
  8
BLACK
  6
ByLayer
 62
  256
370
   -1
100
AcDbCircle
 10
66.167
 20
-29.9085
 40
0.1905
100
AcDbArc
 50
270
 51
90
  0
ARC
  5
34D
100
AcDbEntity
  8
BLACK
  6
ByLayer
 62
  256
370
   -1
100
AcDbCircle
 10
57.023
 20
-29.9085
 40
0.1905
100
AcDbArc
 50
90
 51
270
  0
LINE
  5
34E
100
AcDbEntity
  8
BLACK
  6
ByLayer
 62
  256
370
   -1
100
AcDbLine
 10
57.023
 20
-16.383
 11
66.167
 21
-16.383
  0
LINE
  5
34F
100
AcDbEntity
  8
BLACK
  6
ByLayer
 62
  256
370
   -1
100
AcDbLine
 10
57.023
 20
-16.002
 11
66.167
 21
-16.002
  0
ARC
  5
350
100
AcDbEntity
  8
BLACK
  6
ByLayer
 62
  256
370
   -1
100
AcDbCircle
 10
66.167
 20
-16.1925
 40
0.1905
100
AcDbArc
 50
270
 51
90
  0
ARC
  5
351
100
AcDbEntity
  8
BLACK
  6
ByLayer
 62
  256
370
   -1
100
AcDbCircle
 10
57.023
 20
-16.1925
 40
0.1905
100
AcDbArc
 50
90
 51
270
  0
LINE
  5
352
100
AcDbEntity
  8
BLACK
  6
ByLayer
 62
  256
370
   -1
100
AcDbLine
 10
66.358
 20
-16.5735
 11
66.358
 21
-15.6845
  0
LINE
  5
353
100
AcDbEntity
  8
BLACK
  6
ByLayer
 62
  256
370
   -1
100
AcDbLine
 10
65.977
 20
-16.5735
 11
65.977
 21
-15.6845
  0
ARC
  5
354
100
AcDbEntity
  8
BLACK
  6
ByLayer
 62
  256
370
   -1
100
AcDbCircle
 10
66.167
 20
-15.6845
 40
0.1905
100
AcDbArc
 50
0
 51
180
  0
ARC
  5
355
100
AcDbEntity
  8
BLACK
  6
ByLayer
 62
  256
370
   -1
100
AcDbCircle
 10
66.167
 20
-16.5735
 40
0.1905
100
AcDbArc
 50
180
 51
0
  0
LINE
  5
356
100
AcDbEntity
  8
BLACK
  6
ByLayer
 62
  256
370
   -1
100
AcDbLine
 10
67.818
 20
-18.669
 11
69.08799999999999
 21
-18.669
  0
LINE
  5
357
100
AcDbEntity
  8
BLACK
  6
ByLayer
 62
  256
370
   -1
100
AcDbLine
 10
67.818
 20
-18.288
 11
69.08799999999999
 21
-18.288
  0
ARC
  5
358
100
AcDbEntity
  8
BLACK
  6
ByLayer
 62
  256
370
   -1
100
AcDbCircle
 10
69.08799999999999
 20
-18.4785
 40
0.1905
100
AcDbArc
 50
270
 51
90
  0
ARC
  5
359
100
AcDbEntity
  8
BLACK
  6
ByLayer
 62
  256
370
   -1
100
AcDbCircle
 10
67.818
 20
-18.4785
 40
0.1905
100
AcDbArc
 50
90
 51
270
  0
LINE
  5
35A
100
AcDbEntity
  8
BLACK
  6
ByLayer
 62
  256
370
   -1
100
AcDbLine
 10
57.214
 20
-16.7005
 11
57.214
 21
-15.5575
  0
LINE
  5
35B
100
AcDbEntity
  8
BLACK
  6
ByLayer
 62
  256
370
   -1
100
AcDbLine
 10
56.833
 20
-16.7005
 11
56.833
 21
-15.5575
  0
ARC
  5
35C
100
AcDbEntity
  8
BLACK
  6
ByLayer
 62
  256
370
   -1
100
AcDbCircle
 10
57.023
 20
-15.5575
 40
0.1905
100
AcDbArc
 50
0
 51
180
  0
ARC
  5
35D
100
AcDbEntity
  8
BLACK
  6
ByLayer
 62
  256
370
   -1
100
AcDbCircle
 10
57.023
 20
-16.7005
 40
0.1905
100
AcDbArc
 50
180
 51
0
  0
LINE
  5
35E
100
AcDbEntity
  8
BLACK
  6
ByLayer
 62
  256
370
   -1
100
AcDbLine
 10
54.102
 20
-18.669
 11
55.245
 21
-18.669
  0
LINE
  5
35F
100
AcDbEntity
  8
BLACK
  6
ByLayer
 62
  256
370
   -1
100
AcDbLine
 10
54.102
 20
-18.288
 11
55.245
 21
-18.288
  0
ARC
  5
360
100
AcDbEntity
  8
BLACK
  6
ByLayer
 62
  256
370
   -1
100
AcDbCircle
 10
55.245
 20
-18.4785
 40
0.1905
100
AcDbArc
 50
270
 51
90
  0
ARC
  5
361
100
AcDbEntity
  8
BLACK
  6
ByLayer
 62
  256
370
   -1
100
AcDbCircle
 10
54.102
 20
-18.4785
 40
0.1905
100
AcDbArc
 50
90
 51
270
  0
LINE
  5
362
100
AcDbEntity
  8
BLACK
  6
ByLayer
 62
  256
370
   -1
100
AcDbLine
 10
54.102
 20
-27.813
 11
55.245
 21
-27.813
  0
LINE
  5
363
100
AcDbEntity
  8
BLACK
  6
ByLayer
 62
  256
370
   -1
100
AcDbLine
 10
54.102
 20
-27.432
 11
55.245
 21
-27.432
  0
ARC
  5
364
100
AcDbEntity
  8
BLACK
  6
ByLayer
 62
  256
370
   -1
100
AcDbCircle
 10
55.245
 20
-27.6225
 40
0.1905
100
AcDbArc
 50
270
 51
90
  0
ARC
  5
365
100
AcDbEntity
  8
BLACK
  6
ByLayer
 62
  256
370
   -1
100
AcDbCircle
 10
54.102
 20
-27.6225
 40
0.1905
100
AcDbArc
 50
90
 51
270
  0
LINE
  5
366
100
AcDbEntity
  8
BLACK
  6
ByLayer
 62
  256
370
   -1
100
AcDbLine
 10
57.214
 20
-30.5435
 11
57.214
 21
-29.4005
  0
LINE
  5
367
100
AcDbEntity
  8
BLACK
  6
ByLayer
 62
  256
370
   -1
100
AcDbLine
 10
56.833
 20
-30.5435
 11
56.833
 21
-29.4005
  0
ARC
  5
368
100
AcDbEntity
  8
BLACK
  6
ByLayer
 62
  256
370
   -1
100
AcDbCircle
 10
57.023
 20
-29.4005
 40
0.1905
100
AcDbArc
 50
0
 51
180
  0
ARC
  5
369
100
AcDbEntity
  8
BLACK
  6
ByLayer
 62
  256
370
   -1
100
AcDbCircle
 10
57.023
 20
-30.5435
 40
0.1905
100
AcDbArc
 50
180
 51
0
  0
LINE
  5
36A
100
AcDbEntity
  8
BLACK
  6
ByLayer
 62
  256
370
   -1
100
AcDbLine
 10
67.94499999999999
 20
-27.813
 11
69.08799999999999
 21
-27.813
  0
LINE
  5
36B
100
AcDbEntity
  8
BLACK
  6
ByLayer
 62
  256
370
   -1
100
AcDbLine
 10
67.94499999999999
 20
-27.432
 11
69.08799999999999
 21
-27.432
  0
ARC
  5
36C
100
AcDbEntity
  8
BLACK
  6
ByLayer
 62
  256
370
   -1
100
AcDbCircle
 10
69.08799999999999
 20
-27.6225
 40
0.1905
100
AcDbArc
 50
270
 51
90
  0
ARC
  5
36D
100
AcDbEntity
  8
BLACK
  6
ByLayer
 62
  256
370
   -1
100
AcDbCircle
 10
67.94499999999999
 20
-27.6225
 40
0.1905
100
AcDbArc
 50
90
 51
270
  0
LINE
  5
36E
100
AcDbEntity
  8
BLACK
  6
ByLayer
 62
  256
370
   -1
100
AcDbLine
 10
66.358
 20
-30.5435
 11
66.358
 21
-29.4005
  0
LINE
  5
36F
100
AcDbEntity
  8
BLACK
  6
ByLayer
 62
  256
370
   -1
100
AcDbLine
 10
65.977
 20
-30.5435
 11
65.977
 21
-29.4005
  0
ARC
  5
370
100
AcDbEntity
  8
BLACK
  6
ByLayer
 62
  256
370
   -1
100
AcDbCircle
 10
66.167
 20
-29.4005
 40
0.1905
100
AcDbArc
 50
0
 51
180
  0
ARC
  5
371
100
AcDbEntity
  8
BLACK
  6
ByLayer
 62
  256
370
   -1
100
AcDbCircle
 10
66.167
 20
-30.5435
 40
0.1905
100
AcDbArc
 50
180
 51
0
  0
ARC
  5
372
100
AcDbEntity
  8
BLACK
  6
ByLayer
 62
  256
370
   -1
100
AcDbCircle
 10
67.94499999999999
 20
-29.4005
 40
1.778
100
AcDbArc
 50
90
 51
180
  0
ARC
  5
373
100
AcDbEntity
  8
BLACK
  6
ByLayer
 62
  256
370
   -1
100
AcDbCircle
 10
55.245
 20
-29.4005
 40
1.778
100
AcDbArc
 50
0
 51
90
  0
ARC
  5
374
100
AcDbEntity
  8
BLACK
  6
ByLayer
 62
  256
370
   -1
100
AcDbCircle
 10
67.94499999999999
 20
-16.7005
 40
1.78253
100
AcDbArc
 50
175.9
 51
265.9
  0
ARC
  5
375
100
AcDbEntity
  8
BLACK
  6
ByLayer
 62
  256
370
   -1
100
AcDbCircle
 10
55.245
 20
-16.7005
 40
1.778
100
AcDbArc
 50
270
 51
0
  0
LINE
  5
376
100
AcDbEntity
  8
BLACK
  6
ByLayer
 62
  256
370
   -1
100
AcDbLine
 10
69.279
 20
-30.5435
 11
69.279
 21
-15.5575
  0
LINE
  5
377
100
AcDbEntity
  8
BLACK
  6
ByLayer
 62
  256
370
   -1
100
AcDbLine
 10
68.898
 20
-30.5435
 11
68.898
 21
-15.5575
  0
ARC
  5
378
100
AcDbEntity
  8
BLACK
  6
ByLayer
 62
  256
370
   -1
100
AcDbCircle
 10
69.08799999999999
 20
-15.5575
 40
0.1905
100
AcDbArc
 50
0
 51
180
  0
ARC
  5
379
100
AcDbEntity
  8
BLACK
  6
ByLayer
 62
  256
370
   -1
100
AcDbCircle
 10
69.08799999999999
 20
-30.5435
 40
0.1905
100
AcDbArc
 50
180
 51
0
  0
LINE
  5
37A
100
AcDbEntity
  8
BLACK
  6
ByLayer
 62
  256
370
   -1
100
AcDbLine
 10
54.102
 20
-15.748
 11
69.08799999999999
 21
-15.748
  0
LINE
  5
37B
100
AcDbEntity
  8
BLACK
  6
ByLayer
 62
  256
370
   -1
100
AcDbLine
 10
54.102
 20
-15.367
 11
69.08799999999999
 21
-15.367
  0
ARC
  5
37C
100
AcDbEntity
  8
BLACK
  6
ByLayer
 62
  256
370
   -1
100
AcDbCircle
 10
69.08799999999999
 20
-15.5575
 40
0.1905
100
AcDbArc
 50
270
 51
90
  0
ARC
  5
37D
100
AcDbEntity
  8
BLACK
  6
ByLayer
 62
  256
370
   -1
100
AcDbCircle
 10
54.102
 20
-15.5575
 40
0.1905
100
AcDbArc
 50
90
 51
270
  0
LINE
  5
37E
100
AcDbEntity
  8
BLACK
  6
ByLayer
 62
  256
370
   -1
100
AcDbLine
 10
54.293
 20
-30.5435
 11
54.293
 21
-15.5575
  0
LINE
  5
37F
100
AcDbEntity
  8
BLACK
  6
ByLayer
 62
  256
370
   -1
100
AcDbLine
 10
53.912
 20
-30.5435
 11
53.912
 21
-15.5575
  0
ARC
  5
380
100
AcDbEntity
  8
BLACK
  6
ByLayer
 62
  256
370
   -1
100
AcDbCircle
 10
54.102
 20
-15.5575
 40
0.1905
100
AcDbArc
 50
0
 51
180
  0
ARC
  5
381
100
AcDbEntity
  8
BLACK
  6
ByLayer
 62
  256
370
   -1
100
AcDbCircle
 10
54.102
 20
-30.5435
 40
0.1905
100
AcDbArc
 50
180
 51
0
  0
LINE
  5
382
100
AcDbEntity
  8
BLACK
  6
ByLayer
 62
  256
370
   -1
100
AcDbLine
 10
54.102
 20
-30.734
 11
69.08799999999999
 21
-30.734
  0
LINE
  5
383
100
AcDbEntity
  8
BLACK
  6
ByLayer
 62
  256
370
   -1
100
AcDbLine
 10
54.102
 20
-30.353
 11
69.08799999999999
 21
-30.353
  0
ARC
  5
384
100
AcDbEntity
  8
BLACK
  6
ByLayer
 62
  256
370
   -1
100
AcDbCircle
 10
69.08799999999999
 20
-30.5435
 40
0.1905
100
AcDbArc
 50
270
 51
90
  0
ARC
  5
385
100
AcDbEntity
  8
BLACK
  6
ByLayer
 62
  256
370
   -1
100
AcDbCircle
 10
54.102
 20
-30.5435
 40
0.1905
100
AcDbArc
 50
90
 51
270
  0
LINE
  5
386
100
AcDbEntity
  8
BLACK
  6
ByLayer
 62
  256
370
   -1
100
AcDbLine
 10
57.023
 20
-49.4035
 11
64.13500000000001
 21
-49.4035
  0
LINE
  5
387
100
AcDbEntity
  8
BLACK
  6
ByLayer
 62
  256
370
   -1
100
AcDbLine
 10
57.023
 20
-49.0225
 11
64.13500000000001
 21
-49.0225
  0
ARC
  5
388
100
AcDbEntity
  8
BLACK
  6
ByLayer
 62
  256
370
   -1
100
AcDbCircle
 10
64.13500000000001
 20
-49.2125
 40
0.1905
100
AcDbArc
 50
270
 51
90
  0
ARC
  5
389
100
AcDbEntity
  8
BLACK
  6
ByLayer
 62
  256
370
   -1
100
AcDbCircle
 10
57.023
 20
-49.2125
 40
0.1905
100
AcDbArc
 50
90
 51
270
  0
LINE
  5
38A
100
AcDbEntity
  8
BLACK
  6
ByLayer
 62
  256
370
   -1
100
AcDbLine
 10
64.32599999999999
 20
-51.1175
 11
64.32599999999999
 21
-49.2125
  0
LINE
  5
38B
100
AcDbEntity
  8
BLACK
  6
ByLayer
 62
  256
370
   -1
100
AcDbLine
 10
63.945
 20
-51.1175
 11
63.945
 21
-49.2125
  0
ARC
  5
38C
100
AcDbEntity
  8
BLACK
  6
ByLayer
 62
  256
370
   -1
100
AcDbCircle
 10
64.13500000000001
 20
-49.2125
 40
0.1905
100
AcDbArc
 50
0
 51
180
  0
ARC
  5
38D
100
AcDbEntity
  8
BLACK
  6
ByLayer
 62
  256
370
   -1
100
AcDbCircle
 10
64.13500000000001
 20
-51.1175
 40
0.1905
100
AcDbArc
 50
180
 51
0
  0
LINE
  5
38E
100
AcDbEntity
  8
BLACK
  6
ByLayer
 62
  256
370
   -1
100
AcDbLine
 10
64.32599999999999
 20
-51.2445
 11
64.32599999999999
 21
-51.1175
  0
LINE
  5
38F
100
AcDbEntity
  8
BLACK
  6
ByLayer
 62
  256
370
   -1
100
AcDbLine
 10
63.945
 20
-51.2445
 11
63.945
 21
-51.1175
  0
ARC
  5
390
100
AcDbEntity
  8
BLACK
  6
ByLayer
 62
  256
370
   -1
100
AcDbCircle
 10
64.13500000000001
 20
-51.1175
 40
0.1905
100
AcDbArc
 50
0
 51
180
  0
ARC
  5
391
100
AcDbEntity
  8
BLACK
  6
ByLayer
 62
  256
370
   -1
100
AcDbCircle
 10
64.13500000000001
 20
-51.2445
 40
0.1905
100
AcDbArc
 50
180
 51
0
  0
LINE
  5
392
100
AcDbEntity
  8
BLACK
  6
ByLayer
 62
  256
370
   -1
100
AcDbLine
 10
57.023
 20
-51.4355
 11
64.13500000000001
 21
-51.4355
  0
LINE
  5
393
100
AcDbEntity
  8
BLACK
  6
ByLayer
 62
  256
370
   -1
100
AcDbLine
 10
57.023
 20
-51.0545
 11
64.13500000000001
 21
-51.0545
  0
ARC
  5
394
100
AcDbEntity
  8
BLACK
  6
ByLayer
 62
  256
370
   -1
100
AcDbCircle
 10
64.13500000000001
 20
-51.2445
 40
0.1905
100
AcDbArc
 50
270
 51
90
  0
ARC
  5
395
100
AcDbEntity
  8
BLACK
  6
ByLayer
 62
  256
370
   -1
100
AcDbCircle
 10
57.023
 20
-51.2445
 40
0.1905
100
AcDbArc
 50
90
 51
270
  0
LINE
  5
396
100
AcDbEntity
  8
BLACK
  6
ByLayer
 62
  256
370
   -1
100
AcDbLine
 10
57.214
 20
-51.2445
 11
57.214
 21
-49.2125
  0
LINE
  5
397
100
AcDbEntity
  8
BLACK
  6
ByLayer
 62
  256
370
   -1
100
AcDbLine
 10
56.833
 20
-51.2445
 11
56.833
 21
-49.2125
  0
ARC
  5
398
100
AcDbEntity
  8
BLACK
  6
ByLayer
 62
  256
370
   -1
100
AcDbCircle
 10
57.023
 20
-49.2125
 40
0.1905
100
AcDbArc
 50
0
 51
180
  0
ARC
  5
399
100
AcDbEntity
  8
BLACK
  6
ByLayer
 62
  256
370
   -1
100
AcDbCircle
 10
57.023
 20
-51.2445
 40
0.1905
100
AcDbArc
 50
180
 51
0
  0
LINE
  5
39A
100
AcDbEntity
  8
BLACK
  6
ByLayer
 62
  256
370
   -1
100
AcDbLine
 10
56.007
 20
-57.2775
 11
65.151
 21
-57.2775
  0
LINE
  5
39B
100
AcDbEntity
  8
BLACK
  6
ByLayer
 62
  256
370
   -1
100
AcDbLine
 10
56.007
 20
-56.8965
 11
65.151
 21
-56.8965
  0
ARC
  5
39C
100
AcDbEntity
  8
BLACK
  6
ByLayer
 62
  256
370
   -1
100
AcDbCircle
 10
65.151
 20
-57.0865
 40
0.1905
100
AcDbArc
 50
270
 51
90
  0
ARC
  5
39D
100
AcDbEntity
  8
BLACK
  6
ByLayer
 62
  256
370
   -1
100
AcDbCircle
 10
56.007
 20
-57.0865
 40
0.1905
100
AcDbArc
 50
90
 51
270
  0
LINE
  5
39E
100
AcDbEntity
  8
BLACK
  6
ByLayer
 62
  256
370
   -1
100
AcDbLine
 10
56.007
 20
-43.561
 11
65.151
 21
-43.561
  0
LINE
  5
39F
100
AcDbEntity
  8
BLACK
  6
ByLayer
 62
  256
370
   -1
100
AcDbLine
 10
56.007
 20
-43.18
 11
65.151
 21
-43.18
  0
ARC
  5
3A0
100
AcDbEntity
  8
BLACK
  6
ByLayer
 62
  256
370
   -1
100
AcDbCircle
 10
65.151
 20
-43.3705
 40
0.1905
100
AcDbArc
 50
270
 51
90
  0
ARC
  5
3A1
100
AcDbEntity
  8
BLACK
  6
ByLayer
 62
  256
370
   -1
100
AcDbCircle
 10
56.007
 20
-43.3705
 40
0.1905
100
AcDbArc
 50
90
 51
270
  0
LINE
  5
3A2
100
AcDbEntity
  8
BLACK
  6
ByLayer
 62
  256
370
   -1
100
AcDbLine
 10
65.342
 20
-43.7515
 11
65.342
 21
-42.8625
  0
LINE
  5
3A3
100
AcDbEntity
  8
BLACK
  6
ByLayer
 62
  256
370
   -1
100
AcDbLine
 10
64.961
 20
-43.7515
 11
64.961
 21
-42.8625
  0
ARC
  5
3A4
100
AcDbEntity
  8
BLACK
  6
ByLayer
 62
  256
370
   -1
100
AcDbCircle
 10
65.151
 20
-42.8625
 40
0.1905
100
AcDbArc
 50
0
 51
180
  0
ARC
  5
3A5
100
AcDbEntity
  8
BLACK
  6
ByLayer
 62
  256
370
   -1
100
AcDbCircle
 10
65.151
 20
-43.7515
 40
0.1905
100
AcDbArc
 50
180
 51
0
  0
LINE
  5
3A6
100
AcDbEntity
  8
BLACK
  6
ByLayer
 62
  256
370
   -1
100
AcDbLine
 10
66.80200000000001
 20
-45.8475
 11
68.072
 21
-45.8475
  0
LINE
  5
3A7
100
AcDbEntity
  8
BLACK
  6
ByLayer
 62
  256
370
   -1
100
AcDbLine
 10
66.80200000000001
 20
-45.4665
 11
68.072
 21
-45.4665
  0
ARC
  5
3A8
100
AcDbEntity
  8
BLACK
  6
ByLayer
 62
  256
370
   -1
100
AcDbCircle
 10
68.072
 20
-45.6565
 40
0.1905
100
AcDbArc
 50
270
 51
90
  0
ARC
  5
3A9
100
AcDbEntity
  8
BLACK
  6
ByLayer
 62
  256
370
   -1
100
AcDbCircle
 10
66.80200000000001
 20
-45.6565
 40
0.1905
100
AcDbArc
 50
90
 51
270
  0
LINE
  5
3AA
100
AcDbEntity
  8
BLACK
  6
ByLayer
 62
  256
370
   -1
100
AcDbLine
 10
56.198
 20
-43.8785
 11
56.198
 21
-42.7355
  0
LINE
  5
3AB
100
AcDbEntity
  8
BLACK
  6
ByLayer
 62
  256
370
   -1
100
AcDbLine
 10
55.817
 20
-43.8785
 11
55.817
 21
-42.7355
  0
ARC
  5
3AC
100
AcDbEntity
  8
BLACK
  6
ByLayer
 62
  256
370
   -1
100
AcDbCircle
 10
56.007
 20
-42.7355
 40
0.1905
100
AcDbArc
 50
0
 51
180
  0
ARC
  5
3AD
100
AcDbEntity
  8
BLACK
  6
ByLayer
 62
  256
370
   -1
100
AcDbCircle
 10
56.007
 20
-43.8785
 40
0.1905
100
AcDbArc
 50
180
 51
0
  0
LINE
  5
3AE
100
AcDbEntity
  8
BLACK
  6
ByLayer
 62
  256
370
   -1
100
AcDbLine
 10
53.086
 20
-45.8475
 11
54.229
 21
-45.8475
  0
LINE
  5
3AF
100
AcDbEntity
  8
BLACK
  6
ByLayer
 62
  256
370
   -1
100
AcDbLine
 10
53.086
 20
-45.4665
 11
54.229
 21
-45.4665
  0
ARC
  5
3B0
100
AcDbEntity
  8
BLACK
  6
ByLayer
 62
  256
370
   -1
100
AcDbCircle
 10
54.229
 20
-45.6565
 40
0.1905
100
AcDbArc
 50
270
 51
90
  0
ARC
  5
3B1
100
AcDbEntity
  8
BLACK
  6
ByLayer
 62
  256
370
   -1
100
AcDbCircle
 10
53.086
 20
-45.6565
 40
0.1905
100
AcDbArc
 50
90
 51
270
  0
LINE
  5
3B2
100
AcDbEntity
  8
BLACK
  6
ByLayer
 62
  256
370
   -1
100
AcDbLine
 10
53.086
 20
-54.9915
 11
54.229
 21
-54.9915
  0
LINE
  5
3B3
100
AcDbEntity
  8
BLACK
  6
ByLayer
 62
  256
370
   -1
100
AcDbLine
 10
53.086
 20
-54.6105
 11
54.229
 21
-54.6105
  0
ARC
  5
3B4
100
AcDbEntity
  8
BLACK
  6
ByLayer
 62
  256
370
   -1
100
AcDbCircle
 10
54.229
 20
-54.8005
 40
0.1905
100
AcDbArc
 50
270
 51
90
  0
ARC
  5
3B5
100
AcDbEntity
  8
BLACK
  6
ByLayer
 62
  256
370
   -1
100
AcDbCircle
 10
53.086
 20
-54.8005
 40
0.1905
100
AcDbArc
 50
90
 51
270
  0
LINE
  5
3B6
100
AcDbEntity
  8
BLACK
  6
ByLayer
 62
  256
370
   -1
100
AcDbLine
 10
56.198
 20
-57.7215
 11
56.198
 21
-56.5785
  0
LINE
  5
3B7
100
AcDbEntity
  8
BLACK
  6
ByLayer
 62
  256
370
   -1
100
AcDbLine
 10
55.817
 20
-57.7215
 11
55.817
 21
-56.5785
  0
ARC
  5
3B8
100
AcDbEntity
  8
BLACK
  6
ByLayer
 62
  256
370
   -1
100
AcDbCircle
 10
56.007
 20
-56.5785
 40
0.1905
100
AcDbArc
 50
0
 51
180
  0
ARC
  5
3B9
100
AcDbEntity
  8
BLACK
  6
ByLayer
 62
  256
370
   -1
100
AcDbCircle
 10
56.007
 20
-57.7215
 40
0.1905
100
AcDbArc
 50
180
 51
0
  0
LINE
  5
3BA
100
AcDbEntity
  8
BLACK
  6
ByLayer
 62
  256
370
   -1
100
AcDbLine
 10
66.929
 20
-54.9915
 11
68.072
 21
-54.9915
  0
LINE
  5
3BB
100
AcDbEntity
  8
BLACK
  6
ByLayer
 62
  256
370
   -1
100
AcDbLine
 10
66.929
 20
-54.6105
 11
68.072
 21
-54.6105
  0
ARC
  5
3BC
100
AcDbEntity
  8
BLACK
  6
ByLayer
 62
  256
370
   -1
100
AcDbCircle
 10
68.072
 20
-54.8005
 40
0.1905
100
AcDbArc
 50
270
 51
90
  0
ARC
  5
3BD
100
AcDbEntity
  8
BLACK
  6
ByLayer
 62
  256
370
   -1
100
AcDbCircle
 10
66.929
 20
-54.8005
 40
0.1905
100
AcDbArc
 50
90
 51
270
  0
LINE
  5
3BE
100
AcDbEntity
  8
BLACK
  6
ByLayer
 62
  256
370
   -1
100
AcDbLine
 10
65.342
 20
-57.7215
 11
65.342
 21
-56.5785
  0
LINE
  5
3BF
100
AcDbEntity
  8
BLACK
  6
ByLayer
 62
  256
370
   -1
100
AcDbLine
 10
64.961
 20
-57.7215
 11
64.961
 21
-56.5785
  0
ARC
  5
3C0
100
AcDbEntity
  8
BLACK
  6
ByLayer
 62
  256
370
   -1
100
AcDbCircle
 10
65.151
 20
-56.5785
 40
0.1905
100
AcDbArc
 50
0
 51
180
  0
ARC
  5
3C1
100
AcDbEntity
  8
BLACK
  6
ByLayer
 62
  256
370
   -1
100
AcDbCircle
 10
65.151
 20
-57.7215
 40
0.1905
100
AcDbArc
 50
180
 51
0
  0
ARC
  5
3C2
100
AcDbEntity
  8
BLACK
  6
ByLayer
 62
  256
370
   -1
100
AcDbCircle
 10
66.929
 20
-56.5785
 40
1.778
100
AcDbArc
 50
90
 51
180
  0
ARC
  5
3C3
100
AcDbEntity
  8
BLACK
  6
ByLayer
 62
  256
370
   -1
100
AcDbCircle
 10
54.229
 20
-56.5785
 40
1.778
100
AcDbArc
 50
0
 51
90
  0
ARC
  5
3C4
100
AcDbEntity
  8
BLACK
  6
ByLayer
 62
  256
370
   -1
100
AcDbCircle
 10
66.929
 20
-43.8785
 40
1.78253
100
AcDbArc
 50
175.9
 51
265.9
  0
ARC
  5
3C5
100
AcDbEntity
  8
BLACK
  6
ByLayer
 62
  256
370
   -1
100
AcDbCircle
 10
54.229
 20
-43.8785
 40
1.778
100
AcDbArc
 50
270
 51
0
  0
LINE
  5
3C6
100
AcDbEntity
  8
BLACK
  6
ByLayer
 62
  256
370
   -1
100
AcDbLine
 10
68.26300000000001
 20
-57.7215
 11
68.26300000000001
 21
-42.7355
  0
LINE
  5
3C7
100
AcDbEntity
  8
BLACK
  6
ByLayer
 62
  256
370
   -1
100
AcDbLine
 10
67.88200000000001
 20
-57.7215
 11
67.88200000000001
 21
-42.7355
  0
ARC
  5
3C8
100
AcDbEntity
  8
BLACK
  6
ByLayer
 62
  256
370
   -1
100
AcDbCircle
 10
68.072
 20
-42.7355
 40
0.1905
100
AcDbArc
 50
0
 51
180
  0
ARC
  5
3C9
100
AcDbEntity
  8
BLACK
  6
ByLayer
 62
  256
370
   -1
100
AcDbCircle
 10
68.072
 20
-57.7215
 40
0.1905
100
AcDbArc
 50
180
 51
0
  0
LINE
  5
3CA
100
AcDbEntity
  8
BLACK
  6
ByLayer
 62
  256
370
   -1
100
AcDbLine
 10
53.086
 20
-42.926
 11
68.072
 21
-42.926
  0
LINE
  5
3CB
100
AcDbEntity
  8
BLACK
  6
ByLayer
 62
  256
370
   -1
100
AcDbLine
 10
53.086
 20
-42.545
 11
68.072
 21
-42.545
  0
ARC
  5
3CC
100
AcDbEntity
  8
BLACK
  6
ByLayer
 62
  256
370
   -1
100
AcDbCircle
 10
68.072
 20
-42.7355
 40
0.1905
100
AcDbArc
 50
270
 51
90
  0
ARC
  5
3CD
100
AcDbEntity
  8
BLACK
  6
ByLayer
 62
  256
370
   -1
100
AcDbCircle
 10
53.086
 20
-42.7355
 40
0.1905
100
AcDbArc
 50
90
 51
270
  0
LINE
  5
3CE
100
AcDbEntity
  8
BLACK
  6
ByLayer
 62
  256
370
   -1
100
AcDbLine
 10
53.277
 20
-57.7215
 11
53.277
 21
-42.7355
  0
LINE
  5
3CF
100
AcDbEntity
  8
BLACK
  6
ByLayer
 62
  256
370
   -1
100
AcDbLine
 10
52.896
 20
-57.7215
 11
52.896
 21
-42.7355
  0
ARC
  5
3D0
100
AcDbEntity
  8
BLACK
  6
ByLayer
 62
  256
370
   -1
100
AcDbCircle
 10
53.086
 20
-42.7355
 40
0.1905
100
AcDbArc
 50
0
 51
180
  0
ARC
  5
3D1
100
AcDbEntity
  8
BLACK
  6
ByLayer
 62
  256
370
   -1
100
AcDbCircle
 10
53.086
 20
-57.7215
 40
0.1905
100
AcDbArc
 50
180
 51
0
  0
LINE
  5
3D2
100
AcDbEntity
  8
BLACK
  6
ByLayer
 62
  256
370
   -1
100
AcDbLine
 10
53.086
 20
-57.9125
 11
68.072
 21
-57.9125
  0
LINE
  5
3D3
100
AcDbEntity
  8
BLACK
  6
ByLayer
 62
  256
370
   -1
100
AcDbLine
 10
53.086
 20
-57.5315
 11
68.072
 21
-57.5315
  0
ARC
  5
3D4
100
AcDbEntity
  8
BLACK
  6
ByLayer
 62
  256
370
   -1
100
AcDbCircle
 10
68.072
 20
-57.7215
 40
0.1905
100
AcDbArc
 50
270
 51
90
  0
ARC
  5
3D5
100
AcDbEntity
  8
BLACK
  6
ByLayer
 62
  256
370
   -1
100
AcDbCircle
 10
53.086
 20
-57.7215
 40
0.1905
100
AcDbArc
 50
90
 51
270
  0
LINE
  5
3D6
100
AcDbEntity
  8
BLACK
  6
ByLayer
 62
  256
370
   -1
100
AcDbLine
 10
32.004
 20
-49.4035
 11
39.116
 21
-49.4035
  0
LINE
  5
3D7
100
AcDbEntity
  8
BLACK
  6
ByLayer
 62
  256
370
   -1
100
AcDbLine
 10
32.004
 20
-49.0225
 11
39.116
 21
-49.0225
  0
ARC
  5
3D8
100
AcDbEntity
  8
BLACK
  6
ByLayer
 62
  256
370
   -1
100
AcDbCircle
 10
39.116
 20
-49.2125
 40
0.1905
100
AcDbArc
 50
270
 51
90
  0
ARC
  5
3D9
100
AcDbEntity
  8
BLACK
  6
ByLayer
 62
  256
370
   -1
100
AcDbCircle
 10
32.004
 20
-49.2125
 40
0.1905
100
AcDbArc
 50
90
 51
270
  0
LINE
  5
3DA
100
AcDbEntity
  8
BLACK
  6
ByLayer
 62
  256
370
   -1
100
AcDbLine
 10
39.307
 20
-51.1175
 11
39.307
 21
-49.2125
  0
LINE
  5
3DB
100
AcDbEntity
  8
BLACK
  6
ByLayer
 62
  256
370
   -1
100
AcDbLine
 10
38.926
 20
-51.1175
 11
38.926
 21
-49.2125
  0
ARC
  5
3DC
100
AcDbEntity
  8
BLACK
  6
ByLayer
 62
  256
370
   -1
100
AcDbCircle
 10
39.116
 20
-49.2125
 40
0.1905
100
AcDbArc
 50
0
 51
180
  0
ARC
  5
3DD
100
AcDbEntity
  8
BLACK
  6
ByLayer
 62
  256
370
   -1
100
AcDbCircle
 10
39.116
 20
-51.1175
 40
0.1905
100
AcDbArc
 50
180
 51
0
  0
LINE
  5
3DE
100
AcDbEntity
  8
BLACK
  6
ByLayer
 62
  256
370
   -1
100
AcDbLine
 10
39.307
 20
-51.2445
 11
39.307
 21
-51.1175
  0
LINE
  5
3DF
100
AcDbEntity
  8
BLACK
  6
ByLayer
 62
  256
370
   -1
100
AcDbLine
 10
38.926
 20
-51.2445
 11
38.926
 21
-51.1175
  0
ARC
  5
3E0
100
AcDbEntity
  8
BLACK
  6
ByLayer
 62
  256
370
   -1
100
AcDbCircle
 10
39.116
 20
-51.1175
 40
0.1905
100
AcDbArc
 50
0
 51
180
  0
ARC
  5
3E1
100
AcDbEntity
  8
BLACK
  6
ByLayer
 62
  256
370
   -1
100
AcDbCircle
 10
39.116
 20
-51.2445
 40
0.1905
100
AcDbArc
 50
180
 51
0
  0
LINE
  5
3E2
100
AcDbEntity
  8
BLACK
  6
ByLayer
 62
  256
370
   -1
100
AcDbLine
 10
32.004
 20
-51.4355
 11
39.116
 21
-51.4355
  0
LINE
  5
3E3
100
AcDbEntity
  8
BLACK
  6
ByLayer
 62
  256
370
   -1
100
AcDbLine
 10
32.004
 20
-51.0545
 11
39.116
 21
-51.0545
  0
ARC
  5
3E4
100
AcDbEntity
  8
BLACK
  6
ByLayer
 62
  256
370
   -1
100
AcDbCircle
 10
39.116
 20
-51.2445
 40
0.1905
100
AcDbArc
 50
270
 51
90
  0
ARC
  5
3E5
100
AcDbEntity
  8
BLACK
  6
ByLayer
 62
  256
370
   -1
100
AcDbCircle
 10
32.004
 20
-51.2445
 40
0.1905
100
AcDbArc
 50
90
 51
270
  0
LINE
  5
3E6
100
AcDbEntity
  8
BLACK
  6
ByLayer
 62
  256
370
   -1
100
AcDbLine
 10
32.195
 20
-51.2445
 11
32.195
 21
-49.2125
  0
LINE
  5
3E7
100
AcDbEntity
  8
BLACK
  6
ByLayer
 62
  256
370
   -1
100
AcDbLine
 10
31.814
 20
-51.2445
 11
31.814
 21
-49.2125
  0
ARC
  5
3E8
100
AcDbEntity
  8
BLACK
  6
ByLayer
 62
  256
370
   -1
100
AcDbCircle
 10
32.004
 20
-49.2125
 40
0.1905
100
AcDbArc
 50
0
 51
180
  0
ARC
  5
3E9
100
AcDbEntity
  8
BLACK
  6
ByLayer
 62
  256
370
   -1
100
AcDbCircle
 10
32.004
 20
-51.2445
 40
0.1905
100
AcDbArc
 50
180
 51
0
  0
LINE
  5
3EA
100
AcDbEntity
  8
BLACK
  6
ByLayer
 62
  256
370
   -1
100
AcDbLine
 10
30.988
 20
-57.2775
 11
40.132
 21
-57.2775
  0
LINE
  5
3EB
100
AcDbEntity
  8
BLACK
  6
ByLayer
 62
  256
370
   -1
100
AcDbLine
 10
30.988
 20
-56.8965
 11
40.132
 21
-56.8965
  0
ARC
  5
3EC
100
AcDbEntity
  8
BLACK
  6
ByLayer
 62
  256
370
   -1
100
AcDbCircle
 10
40.132
 20
-57.0865
 40
0.1905
100
AcDbArc
 50
270
 51
90
  0
ARC
  5
3ED
100
AcDbEntity
  8
BLACK
  6
ByLayer
 62
  256
370
   -1
100
AcDbCircle
 10
30.988
 20
-57.0865
 40
0.1905
100
AcDbArc
 50
90
 51
270
  0
LINE
  5
3EE
100
AcDbEntity
  8
BLACK
  6
ByLayer
 62
  256
370
   -1
100
AcDbLine
 10
30.988
 20
-43.561
 11
40.132
 21
-43.561
  0
LINE
  5
3EF
100
AcDbEntity
  8
BLACK
  6
ByLayer
 62
  256
370
   -1
100
AcDbLine
 10
30.988
 20
-43.18
 11
40.132
 21
-43.18
  0
ARC
  5
3F0
100
AcDbEntity
  8
BLACK
  6
ByLayer
 62
  256
370
   -1
100
AcDbCircle
 10
40.132
 20
-43.3705
 40
0.1905
100
AcDbArc
 50
270
 51
90
  0
ARC
  5
3F1
100
AcDbEntity
  8
BLACK
  6
ByLayer
 62
  256
370
   -1
100
AcDbCircle
 10
30.988
 20
-43.3705
 40
0.1905
100
AcDbArc
 50
90
 51
270
  0
LINE
  5
3F2
100
AcDbEntity
  8
BLACK
  6
ByLayer
 62
  256
370
   -1
100
AcDbLine
 10
40.323
 20
-43.7515
 11
40.323
 21
-42.8625
  0
LINE
  5
3F3
100
AcDbEntity
  8
BLACK
  6
ByLayer
 62
  256
370
   -1
100
AcDbLine
 10
39.942
 20
-43.7515
 11
39.942
 21
-42.8625
  0
ARC
  5
3F4
100
AcDbEntity
  8
BLACK
  6
ByLayer
 62
  256
370
   -1
100
AcDbCircle
 10
40.132
 20
-42.8625
 40
0.1905
100
AcDbArc
 50
0
 51
180
  0
ARC
  5
3F5
100
AcDbEntity
  8
BLACK
  6
ByLayer
 62
  256
370
   -1
100
AcDbCircle
 10
40.132
 20
-43.7515
 40
0.1905
100
AcDbArc
 50
180
 51
0
  0
LINE
  5
3F6
100
AcDbEntity
  8
BLACK
  6
ByLayer
 62
  256
370
   -1
100
AcDbLine
 10
41.783
 20
-45.8475
 11
43.053
 21
-45.8475
  0
LINE
  5
3F7
100
AcDbEntity
  8
BLACK
  6
ByLayer
 62
  256
370
   -1
100
AcDbLine
 10
41.783
 20
-45.4665
 11
43.053
 21
-45.4665
  0
ARC
  5
3F8
100
AcDbEntity
  8
BLACK
  6
ByLayer
 62
  256
370
   -1
100
AcDbCircle
 10
43.053
 20
-45.6565
 40
0.1905
100
AcDbArc
 50
270
 51
90
  0
ARC
  5
3F9
100
AcDbEntity
  8
BLACK
  6
ByLayer
 62
  256
370
   -1
100
AcDbCircle
 10
41.783
 20
-45.6565
 40
0.1905
100
AcDbArc
 50
90
 51
270
  0
LINE
  5
3FA
100
AcDbEntity
  8
BLACK
  6
ByLayer
 62
  256
370
   -1
100
AcDbLine
 10
31.179
 20
-43.8785
 11
31.179
 21
-42.7355
  0
LINE
  5
3FB
100
AcDbEntity
  8
BLACK
  6
ByLayer
 62
  256
370
   -1
100
AcDbLine
 10
30.798
 20
-43.8785
 11
30.798
 21
-42.7355
  0
ARC
  5
3FC
100
AcDbEntity
  8
BLACK
  6
ByLayer
 62
  256
370
   -1
100
AcDbCircle
 10
30.988
 20
-42.7355
 40
0.1905
100
AcDbArc
 50
0
 51
180
  0
ARC
  5
3FD
100
AcDbEntity
  8
BLACK
  6
ByLayer
 62
  256
370
   -1
100
AcDbCircle
 10
30.988
 20
-43.8785
 40
0.1905
100
AcDbArc
 50
180
 51
0
  0
LINE
  5
3FE
100
AcDbEntity
  8
BLACK
  6
ByLayer
 62
  256
370
   -1
100
AcDbLine
 10
28.067
 20
-45.8475
 11
29.21
 21
-45.8475
  0
LINE
  5
3FF
100
AcDbEntity
  8
BLACK
  6
ByLayer
 62
  256
370
   -1
100
AcDbLine
 10
28.067
 20
-45.4665
 11
29.21
 21
-45.4665
  0
ARC
  5
400
100
AcDbEntity
  8
BLACK
  6
ByLayer
 62
  256
370
   -1
100
AcDbCircle
 10
29.21
 20
-45.6565
 40
0.1905
100
AcDbArc
 50
270
 51
90
  0
ARC
  5
401
100
AcDbEntity
  8
BLACK
  6
ByLayer
 62
  256
370
   -1
100
AcDbCircle
 10
28.067
 20
-45.6565
 40
0.1905
100
AcDbArc
 50
90
 51
270
  0
LINE
  5
402
100
AcDbEntity
  8
BLACK
  6
ByLayer
 62
  256
370
   -1
100
AcDbLine
 10
28.067
 20
-54.9915
 11
29.21
 21
-54.9915
  0
LINE
  5
403
100
AcDbEntity
  8
BLACK
  6
ByLayer
 62
  256
370
   -1
100
AcDbLine
 10
28.067
 20
-54.6105
 11
29.21
 21
-54.6105
  0
ARC
  5
404
100
AcDbEntity
  8
BLACK
  6
ByLayer
 62
  256
370
   -1
100
AcDbCircle
 10
29.21
 20
-54.8005
 40
0.1905
100
AcDbArc
 50
270
 51
90
  0
ARC
  5
405
100
AcDbEntity
  8
BLACK
  6
ByLayer
 62
  256
370
   -1
100
AcDbCircle
 10
28.067
 20
-54.8005
 40
0.1905
100
AcDbArc
 50
90
 51
270
  0
LINE
  5
406
100
AcDbEntity
  8
BLACK
  6
ByLayer
 62
  256
370
   -1
100
AcDbLine
 10
31.179
 20
-57.7215
 11
31.179
 21
-56.5785
  0
LINE
  5
407
100
AcDbEntity
  8
BLACK
  6
ByLayer
 62
  256
370
   -1
100
AcDbLine
 10
30.798
 20
-57.7215
 11
30.798
 21
-56.5785
  0
ARC
  5
408
100
AcDbEntity
  8
BLACK
  6
ByLayer
 62
  256
370
   -1
100
AcDbCircle
 10
30.988
 20
-56.5785
 40
0.1905
100
AcDbArc
 50
0
 51
180
  0
ARC
  5
409
100
AcDbEntity
  8
BLACK
  6
ByLayer
 62
  256
370
   -1
100
AcDbCircle
 10
30.988
 20
-57.7215
 40
0.1905
100
AcDbArc
 50
180
 51
0
  0
LINE
  5
40A
100
AcDbEntity
  8
BLACK
  6
ByLayer
 62
  256
370
   -1
100
AcDbLine
 10
41.91
 20
-54.9915
 11
43.053
 21
-54.9915
  0
LINE
  5
40B
100
AcDbEntity
  8
BLACK
  6
ByLayer
 62
  256
370
   -1
100
AcDbLine
 10
41.91
 20
-54.6105
 11
43.053
 21
-54.6105
  0
ARC
  5
40C
100
AcDbEntity
  8
BLACK
  6
ByLayer
 62
  256
370
   -1
100
AcDbCircle
 10
43.053
 20
-54.8005
 40
0.1905
100
AcDbArc
 50
270
 51
90
  0
ARC
  5
40D
100
AcDbEntity
  8
BLACK
  6
ByLayer
 62
  256
370
   -1
100
AcDbCircle
 10
41.91
 20
-54.8005
 40
0.1905
100
AcDbArc
 50
90
 51
270
  0
LINE
  5
40E
100
AcDbEntity
  8
BLACK
  6
ByLayer
 62
  256
370
   -1
100
AcDbLine
 10
40.323
 20
-57.7215
 11
40.323
 21
-56.5785
  0
LINE
  5
40F
100
AcDbEntity
  8
BLACK
  6
ByLayer
 62
  256
370
   -1
100
AcDbLine
 10
39.942
 20
-57.7215
 11
39.942
 21
-56.5785
  0
ARC
  5
410
100
AcDbEntity
  8
BLACK
  6
ByLayer
 62
  256
370
   -1
100
AcDbCircle
 10
40.132
 20
-56.5785
 40
0.1905
100
AcDbArc
 50
0
 51
180
  0
ARC
  5
411
100
AcDbEntity
  8
BLACK
  6
ByLayer
 62
  256
370
   -1
100
AcDbCircle
 10
40.132
 20
-57.7215
 40
0.1905
100
AcDbArc
 50
180
 51
0
  0
ARC
  5
412
100
AcDbEntity
  8
BLACK
  6
ByLayer
 62
  256
370
   -1
100
AcDbCircle
 10
41.91
 20
-56.5785
 40
1.778
100
AcDbArc
 50
90
 51
180
  0
ARC
  5
413
100
AcDbEntity
  8
BLACK
  6
ByLayer
 62
  256
370
   -1
100
AcDbCircle
 10
29.21
 20
-56.5785
 40
1.778
100
AcDbArc
 50
0
 51
90
  0
ARC
  5
414
100
AcDbEntity
  8
BLACK
  6
ByLayer
 62
  256
370
   -1
100
AcDbCircle
 10
41.91
 20
-43.8785
 40
1.78253
100
AcDbArc
 50
175.9
 51
265.9
  0
ARC
  5
415
100
AcDbEntity
  8
BLACK
  6
ByLayer
 62
  256
370
   -1
100
AcDbCircle
 10
29.21
 20
-43.8785
 40
1.778
100
AcDbArc
 50
270
 51
0
  0
LINE
  5
416
100
AcDbEntity
  8
BLACK
  6
ByLayer
 62
  256
370
   -1
100
AcDbLine
 10
43.244
 20
-57.7215
 11
43.244
 21
-42.7355
  0
LINE
  5
417
100
AcDbEntity
  8
BLACK
  6
ByLayer
 62
  256
370
   -1
100
AcDbLine
 10
42.863
 20
-57.7215
 11
42.863
 21
-42.7355
  0
ARC
  5
418
100
AcDbEntity
  8
BLACK
  6
ByLayer
 62
  256
370
   -1
100
AcDbCircle
 10
43.053
 20
-42.7355
 40
0.1905
100
AcDbArc
 50
0
 51
180
  0
ARC
  5
419
100
AcDbEntity
  8
BLACK
  6
ByLayer
 62
  256
370
   -1
100
AcDbCircle
 10
43.053
 20
-57.7215
 40
0.1905
100
AcDbArc
 50
180
 51
0
  0
LINE
  5
41A
100
AcDbEntity
  8
BLACK
  6
ByLayer
 62
  256
370
   -1
100
AcDbLine
 10
28.067
 20
-42.926
 11
43.053
 21
-42.926
  0
LINE
  5
41B
100
AcDbEntity
  8
BLACK
  6
ByLayer
 62
  256
370
   -1
100
AcDbLine
 10
28.067
 20
-42.545
 11
43.053
 21
-42.545
  0
ARC
  5
41C
100
AcDbEntity
  8
BLACK
  6
ByLayer
 62
  256
370
   -1
100
AcDbCircle
 10
43.053
 20
-42.7355
 40
0.1905
100
AcDbArc
 50
270
 51
90
  0
ARC
  5
41D
100
AcDbEntity
  8
BLACK
  6
ByLayer
 62
  256
370
   -1
100
AcDbCircle
 10
28.067
 20
-42.7355
 40
0.1905
100
AcDbArc
 50
90
 51
270
  0
LINE
  5
41E
100
AcDbEntity
  8
BLACK
  6
ByLayer
 62
  256
370
   -1
100
AcDbLine
 10
28.258
 20
-57.7215
 11
28.258
 21
-42.7355
  0
LINE
  5
41F
100
AcDbEntity
  8
BLACK
  6
ByLayer
 62
  256
370
   -1
100
AcDbLine
 10
27.877
 20
-57.7215
 11
27.877
 21
-42.7355
  0
ARC
  5
420
100
AcDbEntity
  8
BLACK
  6
ByLayer
 62
  256
370
   -1
100
AcDbCircle
 10
28.067
 20
-42.7355
 40
0.1905
100
AcDbArc
 50
0
 51
180
  0
ARC
  5
421
100
AcDbEntity
  8
BLACK
  6
ByLayer
 62
  256
370
   -1
100
AcDbCircle
 10
28.067
 20
-57.7215
 40
0.1905
100
AcDbArc
 50
180
 51
0
  0
LINE
  5
422
100
AcDbEntity
  8
BLACK
  6
ByLayer
 62
  256
370
   -1
100
AcDbLine
 10
28.067
 20
-57.9125
 11
43.053
 21
-57.9125
  0
LINE
  5
423
100
AcDbEntity
  8
BLACK
  6
ByLayer
 62
  256
370
   -1
100
AcDbLine
 10
28.067
 20
-57.5315
 11
43.053
 21
-57.5315
  0
ARC
  5
424
100
AcDbEntity
  8
BLACK
  6
ByLayer
 62
  256
370
   -1
100
AcDbCircle
 10
43.053
 20
-57.7215
 40
0.1905
100
AcDbArc
 50
270
 51
90
  0
ARC
  5
425
100
AcDbEntity
  8
BLACK
  6
ByLayer
 62
  256
370
   -1
100
AcDbCircle
 10
28.067
 20
-57.7215
 40
0.1905
100
AcDbArc
 50
90
 51
270
  0
LINE
  5
426
100
AcDbEntity
  8
BLACK
  6
ByLayer
 62
  256
370
   -1
100
AcDbLine
 10
6.985
 20
-49.4035
 11
14.097
 21
-49.4035
  0
LINE
  5
427
100
AcDbEntity
  8
BLACK
  6
ByLayer
 62
  256
370
   -1
100
AcDbLine
 10
6.985
 20
-49.0225
 11
14.097
 21
-49.0225
  0
ARC
  5
428
100
AcDbEntity
  8
BLACK
  6
ByLayer
 62
  256
370
   -1
100
AcDbCircle
 10
14.097
 20
-49.2125
 40
0.1905
100
AcDbArc
 50
270
 51
90
  0
ARC
  5
429
100
AcDbEntity
  8
BLACK
  6
ByLayer
 62
  256
370
   -1
100
AcDbCircle
 10
6.985
 20
-49.2125
 40
0.1905
100
AcDbArc
 50
90
 51
270
  0
LINE
  5
42A
100
AcDbEntity
  8
BLACK
  6
ByLayer
 62
  256
370
   -1
100
AcDbLine
 10
14.288
 20
-51.1175
 11
14.288
 21
-49.2125
  0
LINE
  5
42B
100
AcDbEntity
  8
BLACK
  6
ByLayer
 62
  256
370
   -1
100
AcDbLine
 10
13.907
 20
-51.1175
 11
13.907
 21
-49.2125
  0
ARC
  5
42C
100
AcDbEntity
  8
BLACK
  6
ByLayer
 62
  256
370
   -1
100
AcDbCircle
 10
14.097
 20
-49.2125
 40
0.1905
100
AcDbArc
 50
0
 51
180
  0
ARC
  5
42D
100
AcDbEntity
  8
BLACK
  6
ByLayer
 62
  256
370
   -1
100
AcDbCircle
 10
14.097
 20
-51.1175
 40
0.1905
100
AcDbArc
 50
180
 51
0
  0
LINE
  5
42E
100
AcDbEntity
  8
BLACK
  6
ByLayer
 62
  256
370
   -1
100
AcDbLine
 10
14.288
 20
-51.2445
 11
14.288
 21
-51.1175
  0
LINE
  5
42F
100
AcDbEntity
  8
BLACK
  6
ByLayer
 62
  256
370
   -1
100
AcDbLine
 10
13.907
 20
-51.2445
 11
13.907
 21
-51.1175
  0
ARC
  5
430
100
AcDbEntity
  8
BLACK
  6
ByLayer
 62
  256
370
   -1
100
AcDbCircle
 10
14.097
 20
-51.1175
 40
0.1905
100
AcDbArc
 50
0
 51
180
  0
ARC
  5
431
100
AcDbEntity
  8
BLACK
  6
ByLayer
 62
  256
370
   -1
100
AcDbCircle
 10
14.097
 20
-51.2445
 40
0.1905
100
AcDbArc
 50
180
 51
0
  0
LINE
  5
432
100
AcDbEntity
  8
BLACK
  6
ByLayer
 62
  256
370
   -1
100
AcDbLine
 10
6.985
 20
-51.4355
 11
14.097
 21
-51.4355
  0
LINE
  5
433
100
AcDbEntity
  8
BLACK
  6
ByLayer
 62
  256
370
   -1
100
AcDbLine
 10
6.985
 20
-51.0545
 11
14.097
 21
-51.0545
  0
ARC
  5
434
100
AcDbEntity
  8
BLACK
  6
ByLayer
 62
  256
370
   -1
100
AcDbCircle
 10
14.097
 20
-51.2445
 40
0.1905
100
AcDbArc
 50
270
 51
90
  0
ARC
  5
435
100
AcDbEntity
  8
BLACK
  6
ByLayer
 62
  256
370
   -1
100
AcDbCircle
 10
6.985
 20
-51.2445
 40
0.1905
100
AcDbArc
 50
90
 51
270
  0
LINE
  5
436
100
AcDbEntity
  8
BLACK
  6
ByLayer
 62
  256
370
   -1
100
AcDbLine
 10
7.176
 20
-51.2445
 11
7.176
 21
-49.2125
  0
LINE
  5
437
100
AcDbEntity
  8
BLACK
  6
ByLayer
 62
  256
370
   -1
100
AcDbLine
 10
6.795
 20
-51.2445
 11
6.795
 21
-49.2125
  0
ARC
  5
438
100
AcDbEntity
  8
BLACK
  6
ByLayer
 62
  256
370
   -1
100
AcDbCircle
 10
6.985
 20
-49.2125
 40
0.1905
100
AcDbArc
 50
0
 51
180
  0
ARC
  5
439
100
AcDbEntity
  8
BLACK
  6
ByLayer
 62
  256
370
   -1
100
AcDbCircle
 10
6.985
 20
-51.2445
 40
0.1905
100
AcDbArc
 50
180
 51
0
  0
LINE
  5
43A
100
AcDbEntity
  8
BLACK
  6
ByLayer
 62
  256
370
   -1
100
AcDbLine
 10
5.969
 20
-57.2775
 11
15.113
 21
-57.2775
  0
LINE
  5
43B
100
AcDbEntity
  8
BLACK
  6
ByLayer
 62
  256
370
   -1
100
AcDbLine
 10
5.969
 20
-56.8965
 11
15.113
 21
-56.8965
  0
ARC
  5
43C
100
AcDbEntity
  8
BLACK
  6
ByLayer
 62
  256
370
   -1
100
AcDbCircle
 10
15.113
 20
-57.0865
 40
0.1905
100
AcDbArc
 50
270
 51
90
  0
ARC
  5
43D
100
AcDbEntity
  8
BLACK
  6
ByLayer
 62
  256
370
   -1
100
AcDbCircle
 10
5.969
 20
-57.0865
 40
0.1905
100
AcDbArc
 50
90
 51
270
  0
LINE
  5
43E
100
AcDbEntity
  8
BLACK
  6
ByLayer
 62
  256
370
   -1
100
AcDbLine
 10
5.969
 20
-43.561
 11
15.113
 21
-43.561
  0
LINE
  5
43F
100
AcDbEntity
  8
BLACK
  6
ByLayer
 62
  256
370
   -1
100
AcDbLine
 10
5.969
 20
-43.18
 11
15.113
 21
-43.18
  0
ARC
  5
440
100
AcDbEntity
  8
BLACK
  6
ByLayer
 62
  256
370
   -1
100
AcDbCircle
 10
15.113
 20
-43.3705
 40
0.1905
100
AcDbArc
 50
270
 51
90
  0
ARC
  5
441
100
AcDbEntity
  8
BLACK
  6
ByLayer
 62
  256
370
   -1
100
AcDbCircle
 10
5.969
 20
-43.3705
 40
0.1905
100
AcDbArc
 50
90
 51
270
  0
LINE
  5
442
100
AcDbEntity
  8
BLACK
  6
ByLayer
 62
  256
370
   -1
100
AcDbLine
 10
15.304
 20
-43.7515
 11
15.304
 21
-42.8625
  0
LINE
  5
443
100
AcDbEntity
  8
BLACK
  6
ByLayer
 62
  256
370
   -1
100
AcDbLine
 10
14.923
 20
-43.7515
 11
14.923
 21
-42.8625
  0
ARC
  5
444
100
AcDbEntity
  8
BLACK
  6
ByLayer
 62
  256
370
   -1
100
AcDbCircle
 10
15.113
 20
-42.8625
 40
0.1905
100
AcDbArc
 50
0
 51
180
  0
ARC
  5
445
100
AcDbEntity
  8
BLACK
  6
ByLayer
 62
  256
370
   -1
100
AcDbCircle
 10
15.113
 20
-43.7515
 40
0.1905
100
AcDbArc
 50
180
 51
0
  0
LINE
  5
446
100
AcDbEntity
  8
BLACK
  6
ByLayer
 62
  256
370
   -1
100
AcDbLine
 10
16.764
 20
-45.8475
 11
18.034
 21
-45.8475
  0
LINE
  5
447
100
AcDbEntity
  8
BLACK
  6
ByLayer
 62
  256
370
   -1
100
AcDbLine
 10
16.764
 20
-45.4665
 11
18.034
 21
-45.4665
  0
ARC
  5
448
100
AcDbEntity
  8
BLACK
  6
ByLayer
 62
  256
370
   -1
100
AcDbCircle
 10
18.034
 20
-45.6565
 40
0.1905
100
AcDbArc
 50
270
 51
90
  0
ARC
  5
449
100
AcDbEntity
  8
BLACK
  6
ByLayer
 62
  256
370
   -1
100
AcDbCircle
 10
16.764
 20
-45.6565
 40
0.1905
100
AcDbArc
 50
90
 51
270
  0
LINE
  5
44A
100
AcDbEntity
  8
BLACK
  6
ByLayer
 62
  256
370
   -1
100
AcDbLine
 10
6.16
 20
-43.8785
 11
6.16
 21
-42.7355
  0
LINE
  5
44B
100
AcDbEntity
  8
BLACK
  6
ByLayer
 62
  256
370
   -1
100
AcDbLine
 10
5.779
 20
-43.8785
 11
5.779
 21
-42.7355
  0
ARC
  5
44C
100
AcDbEntity
  8
BLACK
  6
ByLayer
 62
  256
370
   -1
100
AcDbCircle
 10
5.969
 20
-42.7355
 40
0.1905
100
AcDbArc
 50
0
 51
180
  0
ARC
  5
44D
100
AcDbEntity
  8
BLACK
  6
ByLayer
 62
  256
370
   -1
100
AcDbCircle
 10
5.969
 20
-43.8785
 40
0.1905
100
AcDbArc
 50
180
 51
0
  0
LINE
  5
44E
100
AcDbEntity
  8
BLACK
  6
ByLayer
 62
  256
370
   -1
100
AcDbLine
 10
3.048
 20
-45.8475
 11
4.191
 21
-45.8475
  0
LINE
  5
44F
100
AcDbEntity
  8
BLACK
  6
ByLayer
 62
  256
370
   -1
100
AcDbLine
 10
3.048
 20
-45.4665
 11
4.191
 21
-45.4665
  0
ARC
  5
450
100
AcDbEntity
  8
BLACK
  6
ByLayer
 62
  256
370
   -1
100
AcDbCircle
 10
4.191
 20
-45.6565
 40
0.1905
100
AcDbArc
 50
270
 51
90
  0
ARC
  5
451
100
AcDbEntity
  8
BLACK
  6
ByLayer
 62
  256
370
   -1
100
AcDbCircle
 10
3.048
 20
-45.6565
 40
0.1905
100
AcDbArc
 50
90
 51
270
  0
LINE
  5
452
100
AcDbEntity
  8
BLACK
  6
ByLayer
 62
  256
370
   -1
100
AcDbLine
 10
3.048
 20
-54.9915
 11
4.191
 21
-54.9915
  0
LINE
  5
453
100
AcDbEntity
  8
BLACK
  6
ByLayer
 62
  256
370
   -1
100
AcDbLine
 10
3.048
 20
-54.6105
 11
4.191
 21
-54.6105
  0
ARC
  5
454
100
AcDbEntity
  8
BLACK
  6
ByLayer
 62
  256
370
   -1
100
AcDbCircle
 10
4.191
 20
-54.8005
 40
0.1905
100
AcDbArc
 50
270
 51
90
  0
ARC
  5
455
100
AcDbEntity
  8
BLACK
  6
ByLayer
 62
  256
370
   -1
100
AcDbCircle
 10
3.048
 20
-54.8005
 40
0.1905
100
AcDbArc
 50
90
 51
270
  0
LINE
  5
456
100
AcDbEntity
  8
BLACK
  6
ByLayer
 62
  256
370
   -1
100
AcDbLine
 10
6.16
 20
-57.7215
 11
6.16
 21
-56.5785
  0
LINE
  5
457
100
AcDbEntity
  8
BLACK
  6
ByLayer
 62
  256
370
   -1
100
AcDbLine
 10
5.779
 20
-57.7215
 11
5.779
 21
-56.5785
  0
ARC
  5
458
100
AcDbEntity
  8
BLACK
  6
ByLayer
 62
  256
370
   -1
100
AcDbCircle
 10
5.969
 20
-56.5785
 40
0.1905
100
AcDbArc
 50
0
 51
180
  0
ARC
  5
459
100
AcDbEntity
  8
BLACK
  6
ByLayer
 62
  256
370
   -1
100
AcDbCircle
 10
5.969
 20
-57.7215
 40
0.1905
100
AcDbArc
 50
180
 51
0
  0
LINE
  5
45A
100
AcDbEntity
  8
BLACK
  6
ByLayer
 62
  256
370
   -1
100
AcDbLine
 10
16.891
 20
-54.9915
 11
18.034
 21
-54.9915
  0
LINE
  5
45B
100
AcDbEntity
  8
BLACK
  6
ByLayer
 62
  256
370
   -1
100
AcDbLine
 10
16.891
 20
-54.6105
 11
18.034
 21
-54.6105
  0
ARC
  5
45C
100
AcDbEntity
  8
BLACK
  6
ByLayer
 62
  256
370
   -1
100
AcDbCircle
 10
18.034
 20
-54.8005
 40
0.1905
100
AcDbArc
 50
270
 51
90
  0
ARC
  5
45D
100
AcDbEntity
  8
BLACK
  6
ByLayer
 62
  256
370
   -1
100
AcDbCircle
 10
16.891
 20
-54.8005
 40
0.1905
100
AcDbArc
 50
90
 51
270
  0
LINE
  5
45E
100
AcDbEntity
  8
BLACK
  6
ByLayer
 62
  256
370
   -1
100
AcDbLine
 10
15.304
 20
-57.7215
 11
15.304
 21
-56.5785
  0
LINE
  5
45F
100
AcDbEntity
  8
BLACK
  6
ByLayer
 62
  256
370
   -1
100
AcDbLine
 10
14.923
 20
-57.7215
 11
14.923
 21
-56.5785
  0
ARC
  5
460
100
AcDbEntity
  8
BLACK
  6
ByLayer
 62
  256
370
   -1
100
AcDbCircle
 10
15.113
 20
-56.5785
 40
0.1905
100
AcDbArc
 50
0
 51
180
  0
ARC
  5
461
100
AcDbEntity
  8
BLACK
  6
ByLayer
 62
  256
370
   -1
100
AcDbCircle
 10
15.113
 20
-57.7215
 40
0.1905
100
AcDbArc
 50
180
 51
0
  0
ARC
  5
462
100
AcDbEntity
  8
BLACK
  6
ByLayer
 62
  256
370
   -1
100
AcDbCircle
 10
16.891
 20
-56.5785
 40
1.778
100
AcDbArc
 50
90
 51
180
  0
ARC
  5
463
100
AcDbEntity
  8
BLACK
  6
ByLayer
 62
  256
370
   -1
100
AcDbCircle
 10
4.191
 20
-56.5785
 40
1.778
100
AcDbArc
 50
0
 51
90
  0
ARC
  5
464
100
AcDbEntity
  8
BLACK
  6
ByLayer
 62
  256
370
   -1
100
AcDbCircle
 10
16.891
 20
-43.8785
 40
1.78253
100
AcDbArc
 50
175.9
 51
265.9
  0
ARC
  5
465
100
AcDbEntity
  8
BLACK
  6
ByLayer
 62
  256
370
   -1
100
AcDbCircle
 10
4.191
 20
-43.8785
 40
1.778
100
AcDbArc
 50
270
 51
0
  0
LINE
  5
466
100
AcDbEntity
  8
BLACK
  6
ByLayer
 62
  256
370
   -1
100
AcDbLine
 10
18.225
 20
-57.7215
 11
18.225
 21
-42.7355
  0
LINE
  5
467
100
AcDbEntity
  8
BLACK
  6
ByLayer
 62
  256
370
   -1
100
AcDbLine
 10
17.844
 20
-57.7215
 11
17.844
 21
-42.7355
  0
ARC
  5
468
100
AcDbEntity
  8
BLACK
  6
ByLayer
 62
  256
370
   -1
100
AcDbCircle
 10
18.034
 20
-42.7355
 40
0.1905
100
AcDbArc
 50
0
 51
180
  0
ARC
  5
469
100
AcDbEntity
  8
BLACK
  6
ByLayer
 62
  256
370
   -1
100
AcDbCircle
 10
18.034
 20
-57.7215
 40
0.1905
100
AcDbArc
 50
180
 51
0
  0
LINE
  5
46A
100
AcDbEntity
  8
BLACK
  6
ByLayer
 62
  256
370
   -1
100
AcDbLine
 10
3.048
 20
-42.926
 11
18.034
 21
-42.926
  0
LINE
  5
46B
100
AcDbEntity
  8
BLACK
  6
ByLayer
 62
  256
370
   -1
100
AcDbLine
 10
3.048
 20
-42.545
 11
18.034
 21
-42.545
  0
ARC
  5
46C
100
AcDbEntity
  8
BLACK
  6
ByLayer
 62
  256
370
   -1
100
AcDbCircle
 10
18.034
 20
-42.7355
 40
0.1905
100
AcDbArc
 50
270
 51
90
  0
ARC
  5
46D
100
AcDbEntity
  8
BLACK
  6
ByLayer
 62
  256
370
   -1
100
AcDbCircle
 10
3.048
 20
-42.7355
 40
0.1905
100
AcDbArc
 50
90
 51
270
  0
LINE
  5
46E
100
AcDbEntity
  8
BLACK
  6
ByLayer
 62
  256
370
   -1
100
AcDbLine
 10
3.239
 20
-57.7215
 11
3.239
 21
-42.7355
  0
LINE
  5
46F
100
AcDbEntity
  8
BLACK
  6
ByLayer
 62
  256
370
   -1
100
AcDbLine
 10
2.858
 20
-57.7215
 11
2.858
 21
-42.7355
  0
ARC
  5
470
100
AcDbEntity
  8
BLACK
  6
ByLayer
 62
  256
370
   -1
100
AcDbCircle
 10
3.048
 20
-42.7355
 40
0.1905
100
AcDbArc
 50
0
 51
180
  0
ARC
  5
471
100
AcDbEntity
  8
BLACK
  6
ByLayer
 62
  256
370
   -1
100
AcDbCircle
 10
3.048
 20
-57.7215
 40
0.1905
100
AcDbArc
 50
180
 51
0
  0
LINE
  5
472
100
AcDbEntity
  8
BLACK
  6
ByLayer
 62
  256
370
   -1
100
AcDbLine
 10
3.048
 20
-57.9125
 11
18.034
 21
-57.9125
  0
LINE
  5
473
100
AcDbEntity
  8
BLACK
  6
ByLayer
 62
  256
370
   -1
100
AcDbLine
 10
3.048
 20
-57.5315
 11
18.034
 21
-57.5315
  0
ARC
  5
474
100
AcDbEntity
  8
BLACK
  6
ByLayer
 62
  256
370
   -1
100
AcDbCircle
 10
18.034
 20
-57.7215
 40
0.1905
100
AcDbArc
 50
270
 51
90
  0
ARC
  5
475
100
AcDbEntity
  8
BLACK
  6
ByLayer
 62
  256
370
   -1
100
AcDbCircle
 10
3.048
 20
-57.7215
 40
0.1905
100
AcDbArc
 50
90
 51
270
  0
LINE
  5
476
100
AcDbEntity
  8
BLACK
  6
ByLayer
 62
  256
370
   -1
100
AcDbLine
 10
6.985
 20
-67.8185
 11
14.097
 21
-67.8185
  0
LINE
  5
477
100
AcDbEntity
  8
BLACK
  6
ByLayer
 62
  256
370
   -1
100
AcDbLine
 10
6.985
 20
-67.4375
 11
14.097
 21
-67.4375
  0
ARC
  5
478
100
AcDbEntity
  8
BLACK
  6
ByLayer
 62
  256
370
   -1
100
AcDbCircle
 10
14.097
 20
-67.6275
 40
0.1905
100
AcDbArc
 50
270
 51
90
  0
ARC
  5
479
100
AcDbEntity
  8
BLACK
  6
ByLayer
 62
  256
370
   -1
100
AcDbCircle
 10
6.985
 20
-67.6275
 40
0.1905
100
AcDbArc
 50
90
 51
270
  0
LINE
  5
47A
100
AcDbEntity
  8
BLACK
  6
ByLayer
 62
  256
370
   -1
100
AcDbLine
 10
14.288
 20
-69.5325
 11
14.288
 21
-67.6275
  0
LINE
  5
47B
100
AcDbEntity
  8
BLACK
  6
ByLayer
 62
  256
370
   -1
100
AcDbLine
 10
13.907
 20
-69.5325
 11
13.907
 21
-67.6275
  0
ARC
  5
47C
100
AcDbEntity
  8
BLACK
  6
ByLayer
 62
  256
370
   -1
100
AcDbCircle
 10
14.097
 20
-67.6275
 40
0.1905
100
AcDbArc
 50
0
 51
180
  0
ARC
  5
47D
100
AcDbEntity
  8
BLACK
  6
ByLayer
 62
  256
370
   -1
100
AcDbCircle
 10
14.097
 20
-69.5325
 40
0.1905
100
AcDbArc
 50
180
 51
0
  0
LINE
  5
47E
100
AcDbEntity
  8
BLACK
  6
ByLayer
 62
  256
370
   -1
100
AcDbLine
 10
14.288
 20
-69.65949999999999
 11
14.288
 21
-69.5325
  0
LINE
  5
47F
100
AcDbEntity
  8
BLACK
  6
ByLayer
 62
  256
370
   -1
100
AcDbLine
 10
13.907
 20
-69.65949999999999
 11
13.907
 21
-69.5325
  0
ARC
  5
480
100
AcDbEntity
  8
BLACK
  6
ByLayer
 62
  256
370
   -1
100
AcDbCircle
 10
14.097
 20
-69.5325
 40
0.1905
100
AcDbArc
 50
0
 51
180
  0
ARC
  5
481
100
AcDbEntity
  8
BLACK
  6
ByLayer
 62
  256
370
   -1
100
AcDbCircle
 10
14.097
 20
-69.65949999999999
 40
0.1905
100
AcDbArc
 50
180
 51
0
  0
LINE
  5
482
100
AcDbEntity
  8
BLACK
  6
ByLayer
 62
  256
370
   -1
100
AcDbLine
 10
6.985
 20
-69.8505
 11
14.097
 21
-69.8505
  0
LINE
  5
483
100
AcDbEntity
  8
BLACK
  6
ByLayer
 62
  256
370
   -1
100
AcDbLine
 10
6.985
 20
-69.4695
 11
14.097
 21
-69.4695
  0
ARC
  5
484
100
AcDbEntity
  8
BLACK
  6
ByLayer
 62
  256
370
   -1
100
AcDbCircle
 10
14.097
 20
-69.65949999999999
 40
0.1905
100
AcDbArc
 50
270
 51
90
  0
ARC
  5
485
100
AcDbEntity
  8
BLACK
  6
ByLayer
 62
  256
370
   -1
100
AcDbCircle
 10
6.985
 20
-69.65949999999999
 40
0.1905
100
AcDbArc
 50
90
 51
270
  0
LINE
  5
486
100
AcDbEntity
  8
BLACK
  6
ByLayer
 62
  256
370
   -1
100
AcDbLine
 10
7.176
 20
-69.65949999999999
 11
7.176
 21
-67.6275
  0
LINE
  5
487
100
AcDbEntity
  8
BLACK
  6
ByLayer
 62
  256
370
   -1
100
AcDbLine
 10
6.795
 20
-69.65949999999999
 11
6.795
 21
-67.6275
  0
ARC
  5
488
100
AcDbEntity
  8
BLACK
  6
ByLayer
 62
  256
370
   -1
100
AcDbCircle
 10
6.985
 20
-67.6275
 40
0.1905
100
AcDbArc
 50
0
 51
180
  0
ARC
  5
489
100
AcDbEntity
  8
BLACK
  6
ByLayer
 62
  256
370
   -1
100
AcDbCircle
 10
6.985
 20
-69.65949999999999
 40
0.1905
100
AcDbArc
 50
180
 51
0
  0
LINE
  5
48A
100
AcDbEntity
  8
BLACK
  6
ByLayer
 62
  256
370
   -1
100
AcDbLine
 10
5.969
 20
-75.6925
 11
15.113
 21
-75.6925
  0
LINE
  5
48B
100
AcDbEntity
  8
BLACK
  6
ByLayer
 62
  256
370
   -1
100
AcDbLine
 10
5.969
 20
-75.3115
 11
15.113
 21
-75.3115
  0
ARC
  5
48C
100
AcDbEntity
  8
BLACK
  6
ByLayer
 62
  256
370
   -1
100
AcDbCircle
 10
15.113
 20
-75.50149999999999
 40
0.1905
100
AcDbArc
 50
270
 51
90
  0
ARC
  5
48D
100
AcDbEntity
  8
BLACK
  6
ByLayer
 62
  256
370
   -1
100
AcDbCircle
 10
5.969
 20
-75.50149999999999
 40
0.1905
100
AcDbArc
 50
90
 51
270
  0
LINE
  5
48E
100
AcDbEntity
  8
BLACK
  6
ByLayer
 62
  256
370
   -1
100
AcDbLine
 10
5.969
 20
-61.9765
 11
15.113
 21
-61.9765
  0
LINE
  5
48F
100
AcDbEntity
  8
BLACK
  6
ByLayer
 62
  256
370
   -1
100
AcDbLine
 10
5.969
 20
-61.5955
 11
15.113
 21
-61.5955
  0
ARC
  5
490
100
AcDbEntity
  8
BLACK
  6
ByLayer
 62
  256
370
   -1
100
AcDbCircle
 10
15.113
 20
-61.7855
 40
0.1905
100
AcDbArc
 50
270
 51
90
  0
ARC
  5
491
100
AcDbEntity
  8
BLACK
  6
ByLayer
 62
  256
370
   -1
100
AcDbCircle
 10
5.969
 20
-61.7855
 40
0.1905
100
AcDbArc
 50
90
 51
270
  0
LINE
  5
492
100
AcDbEntity
  8
BLACK
  6
ByLayer
 62
  256
370
   -1
100
AcDbLine
 10
15.304
 20
-62.1665
 11
15.304
 21
-61.2775
  0
LINE
  5
493
100
AcDbEntity
  8
BLACK
  6
ByLayer
 62
  256
370
   -1
100
AcDbLine
 10
14.923
 20
-62.1665
 11
14.923
 21
-61.2775
  0
ARC
  5
494
100
AcDbEntity
  8
BLACK
  6
ByLayer
 62
  256
370
   -1
100
AcDbCircle
 10
15.113
 20
-61.2775
 40
0.1905
100
AcDbArc
 50
0
 51
180
  0
ARC
  5
495
100
AcDbEntity
  8
BLACK
  6
ByLayer
 62
  256
370
   -1
100
AcDbCircle
 10
15.113
 20
-62.1665
 40
0.1905
100
AcDbArc
 50
180
 51
0
  0
LINE
  5
496
100
AcDbEntity
  8
BLACK
  6
ByLayer
 62
  256
370
   -1
100
AcDbLine
 10
16.764
 20
-64.2625
 11
18.034
 21
-64.2625
  0
LINE
  5
497
100
AcDbEntity
  8
BLACK
  6
ByLayer
 62
  256
370
   -1
100
AcDbLine
 10
16.764
 20
-63.8815
 11
18.034
 21
-63.8815
  0
ARC
  5
498
100
AcDbEntity
  8
BLACK
  6
ByLayer
 62
  256
370
   -1
100
AcDbCircle
 10
18.034
 20
-64.0715
 40
0.1905
100
AcDbArc
 50
270
 51
90
  0
ARC
  5
499
100
AcDbEntity
  8
BLACK
  6
ByLayer
 62
  256
370
   -1
100
AcDbCircle
 10
16.764
 20
-64.0715
 40
0.1905
100
AcDbArc
 50
90
 51
270
  0
LINE
  5
49A
100
AcDbEntity
  8
BLACK
  6
ByLayer
 62
  256
370
   -1
100
AcDbLine
 10
6.16
 20
-62.2935
 11
6.16
 21
-61.1505
  0
LINE
  5
49B
100
AcDbEntity
  8
BLACK
  6
ByLayer
 62
  256
370
   -1
100
AcDbLine
 10
5.779
 20
-62.2935
 11
5.779
 21
-61.1505
  0
ARC
  5
49C
100
AcDbEntity
  8
BLACK
  6
ByLayer
 62
  256
370
   -1
100
AcDbCircle
 10
5.969
 20
-61.1505
 40
0.1905
100
AcDbArc
 50
0
 51
180
  0
ARC
  5
49D
100
AcDbEntity
  8
BLACK
  6
ByLayer
 62
  256
370
   -1
100
AcDbCircle
 10
5.969
 20
-62.2935
 40
0.1905
100
AcDbArc
 50
180
 51
0
  0
LINE
  5
49E
100
AcDbEntity
  8
BLACK
  6
ByLayer
 62
  256
370
   -1
100
AcDbLine
 10
3.048
 20
-64.2625
 11
4.191
 21
-64.2625
  0
LINE
  5
49F
100
AcDbEntity
  8
BLACK
  6
ByLayer
 62
  256
370
   -1
100
AcDbLine
 10
3.048
 20
-63.8815
 11
4.191
 21
-63.8815
  0
ARC
  5
4A0
100
AcDbEntity
  8
BLACK
  6
ByLayer
 62
  256
370
   -1
100
AcDbCircle
 10
4.191
 20
-64.0715
 40
0.1905
100
AcDbArc
 50
270
 51
90
  0
ARC
  5
4A1
100
AcDbEntity
  8
BLACK
  6
ByLayer
 62
  256
370
   -1
100
AcDbCircle
 10
3.048
 20
-64.0715
 40
0.1905
100
AcDbArc
 50
90
 51
270
  0
LINE
  5
4A2
100
AcDbEntity
  8
BLACK
  6
ByLayer
 62
  256
370
   -1
100
AcDbLine
 10
3.048
 20
-73.40649999999999
 11
4.191
 21
-73.40649999999999
  0
LINE
  5
4A3
100
AcDbEntity
  8
BLACK
  6
ByLayer
 62
  256
370
   -1
100
AcDbLine
 10
3.048
 20
-73.02549999999999
 11
4.191
 21
-73.02549999999999
  0
ARC
  5
4A4
100
AcDbEntity
  8
BLACK
  6
ByLayer
 62
  256
370
   -1
100
AcDbCircle
 10
4.191
 20
-73.21550000000001
 40
0.1905
100
AcDbArc
 50
270
 51
90
  0
ARC
  5
4A5
100
AcDbEntity
  8
BLACK
  6
ByLayer
 62
  256
370
   -1
100
AcDbCircle
 10
3.048
 20
-73.21550000000001
 40
0.1905
100
AcDbArc
 50
90
 51
270
  0
LINE
  5
4A6
100
AcDbEntity
  8
BLACK
  6
ByLayer
 62
  256
370
   -1
100
AcDbLine
 10
6.16
 20
-76.1365
 11
6.16
 21
-74.9935
  0
LINE
  5
4A7
100
AcDbEntity
  8
BLACK
  6
ByLayer
 62
  256
370
   -1
100
AcDbLine
 10
5.779
 20
-76.1365
 11
5.779
 21
-74.9935
  0
ARC
  5
4A8
100
AcDbEntity
  8
BLACK
  6
ByLayer
 62
  256
370
   -1
100
AcDbCircle
 10
5.969
 20
-74.9935
 40
0.1905
100
AcDbArc
 50
0
 51
180
  0
ARC
  5
4A9
100
AcDbEntity
  8
BLACK
  6
ByLayer
 62
  256
370
   -1
100
AcDbCircle
 10
5.969
 20
-76.1365
 40
0.1905
100
AcDbArc
 50
180
 51
0
  0
LINE
  5
4AA
100
AcDbEntity
  8
BLACK
  6
ByLayer
 62
  256
370
   -1
100
AcDbLine
 10
16.891
 20
-73.40649999999999
 11
18.034
 21
-73.40649999999999
  0
LINE
  5
4AB
100
AcDbEntity
  8
BLACK
  6
ByLayer
 62
  256
370
   -1
100
AcDbLine
 10
16.891
 20
-73.02549999999999
 11
18.034
 21
-73.02549999999999
  0
ARC
  5
4AC
100
AcDbEntity
  8
BLACK
  6
ByLayer
 62
  256
370
   -1
100
AcDbCircle
 10
18.034
 20
-73.21550000000001
 40
0.1905
100
AcDbArc
 50
270
 51
90
  0
ARC
  5
4AD
100
AcDbEntity
  8
BLACK
  6
ByLayer
 62
  256
370
   -1
100
AcDbCircle
 10
16.891
 20
-73.21550000000001
 40
0.1905
100
AcDbArc
 50
90
 51
270
  0
LINE
  5
4AE
100
AcDbEntity
  8
BLACK
  6
ByLayer
 62
  256
370
   -1
100
AcDbLine
 10
15.304
 20
-76.1365
 11
15.304
 21
-74.9935
  0
LINE
  5
4AF
100
AcDbEntity
  8
BLACK
  6
ByLayer
 62
  256
370
   -1
100
AcDbLine
 10
14.923
 20
-76.1365
 11
14.923
 21
-74.9935
  0
ARC
  5
4B0
100
AcDbEntity
  8
BLACK
  6
ByLayer
 62
  256
370
   -1
100
AcDbCircle
 10
15.113
 20
-74.9935
 40
0.1905
100
AcDbArc
 50
0
 51
180
  0
ARC
  5
4B1
100
AcDbEntity
  8
BLACK
  6
ByLayer
 62
  256
370
   -1
100
AcDbCircle
 10
15.113
 20
-76.1365
 40
0.1905
100
AcDbArc
 50
180
 51
0
  0
ARC
  5
4B2
100
AcDbEntity
  8
BLACK
  6
ByLayer
 62
  256
370
   -1
100
AcDbCircle
 10
16.891
 20
-74.9935
 40
1.778
100
AcDbArc
 50
90
 51
180
  0
ARC
  5
4B3
100
AcDbEntity
  8
BLACK
  6
ByLayer
 62
  256
370
   -1
100
AcDbCircle
 10
4.191
 20
-74.9935
 40
1.778
100
AcDbArc
 50
0
 51
90
  0
ARC
  5
4B4
100
AcDbEntity
  8
BLACK
  6
ByLayer
 62
  256
370
   -1
100
AcDbCircle
 10
16.891
 20
-62.2935
 40
1.78253
100
AcDbArc
 50
175.9
 51
265.9
  0
ARC
  5
4B5
100
AcDbEntity
  8
BLACK
  6
ByLayer
 62
  256
370
   -1
100
AcDbCircle
 10
4.191
 20
-62.2935
 40
1.778
100
AcDbArc
 50
270
 51
0
  0
LINE
  5
4B6
100
AcDbEntity
  8
BLACK
  6
ByLayer
 62
  256
370
   -1
100
AcDbLine
 10
18.225
 20
-76.1365
 11
18.225
 21
-61.1505
  0
LINE
  5
4B7
100
AcDbEntity
  8
BLACK
  6
ByLayer
 62
  256
370
   -1
100
AcDbLine
 10
17.844
 20
-76.1365
 11
17.844
 21
-61.1505
  0
ARC
  5
4B8
100
AcDbEntity
  8
BLACK
  6
ByLayer
 62
  256
370
   -1
100
AcDbCircle
 10
18.034
 20
-61.1505
 40
0.1905
100
AcDbArc
 50
0
 51
180
  0
ARC
  5
4B9
100
AcDbEntity
  8
BLACK
  6
ByLayer
 62
  256
370
   -1
100
AcDbCircle
 10
18.034
 20
-76.1365
 40
0.1905
100
AcDbArc
 50
180
 51
0
  0
LINE
  5
4BA
100
AcDbEntity
  8
BLACK
  6
ByLayer
 62
  256
370
   -1
100
AcDbLine
 10
3.048
 20
-61.3415
 11
18.034
 21
-61.3415
  0
LINE
  5
4BB
100
AcDbEntity
  8
BLACK
  6
ByLayer
 62
  256
370
   -1
100
AcDbLine
 10
3.048
 20
-60.9605
 11
18.034
 21
-60.9605
  0
ARC
  5
4BC
100
AcDbEntity
  8
BLACK
  6
ByLayer
 62
  256
370
   -1
100
AcDbCircle
 10
18.034
 20
-61.1505
 40
0.1905
100
AcDbArc
 50
270
 51
90
  0
ARC
  5
4BD
100
AcDbEntity
  8
BLACK
  6
ByLayer
 62
  256
370
   -1
100
AcDbCircle
 10
3.048
 20
-61.1505
 40
0.1905
100
AcDbArc
 50
90
 51
270
  0
LINE
  5
4BE
100
AcDbEntity
  8
BLACK
  6
ByLayer
 62
  256
370
   -1
100
AcDbLine
 10
3.239
 20
-76.1365
 11
3.239
 21
-61.1505
  0
LINE
  5
4BF
100
AcDbEntity
  8
BLACK
  6
ByLayer
 62
  256
370
   -1
100
AcDbLine
 10
2.858
 20
-76.1365
 11
2.858
 21
-61.1505
  0
ARC
  5
4C0
100
AcDbEntity
  8
BLACK
  6
ByLayer
 62
  256
370
   -1
100
AcDbCircle
 10
3.048
 20
-61.1505
 40
0.1905
100
AcDbArc
 50
0
 51
180
  0
ARC
  5
4C1
100
AcDbEntity
  8
BLACK
  6
ByLayer
 62
  256
370
   -1
100
AcDbCircle
 10
3.048
 20
-76.1365
 40
0.1905
100
AcDbArc
 50
180
 51
0
  0
LINE
  5
4C2
100
AcDbEntity
  8
BLACK
  6
ByLayer
 62
  256
370
   -1
100
AcDbLine
 10
3.048
 20
-76.3275
 11
18.034
 21
-76.3275
  0
LINE
  5
4C3
100
AcDbEntity
  8
BLACK
  6
ByLayer
 62
  256
370
   -1
100
AcDbLine
 10
3.048
 20
-75.9465
 11
18.034
 21
-75.9465
  0
ARC
  5
4C4
100
AcDbEntity
  8
BLACK
  6
ByLayer
 62
  256
370
   -1
100
AcDbCircle
 10
18.034
 20
-76.1365
 40
0.1905
100
AcDbArc
 50
270
 51
90
  0
ARC
  5
4C5
100
AcDbEntity
  8
BLACK
  6
ByLayer
 62
  256
370
   -1
100
AcDbCircle
 10
3.048
 20
-76.1365
 40
0.1905
100
AcDbArc
 50
90
 51
270
  0
LINE
  5
4C6
100
AcDbEntity
  8
BLACK
  6
ByLayer
 62
  256
370
   -1
100
AcDbLine
 10
32.004
 20
-67.8185
 11
39.116
 21
-67.8185
  0
LINE
  5
4C7
100
AcDbEntity
  8
BLACK
  6
ByLayer
 62
  256
370
   -1
100
AcDbLine
 10
32.004
 20
-67.4375
 11
39.116
 21
-67.4375
  0
ARC
  5
4C8
100
AcDbEntity
  8
BLACK
  6
ByLayer
 62
  256
370
   -1
100
AcDbCircle
 10
39.116
 20
-67.6275
 40
0.1905
100
AcDbArc
 50
270
 51
90
  0
ARC
  5
4C9
100
AcDbEntity
  8
BLACK
  6
ByLayer
 62
  256
370
   -1
100
AcDbCircle
 10
32.004
 20
-67.6275
 40
0.1905
100
AcDbArc
 50
90
 51
270
  0
LINE
  5
4CA
100
AcDbEntity
  8
BLACK
  6
ByLayer
 62
  256
370
   -1
100
AcDbLine
 10
39.307
 20
-69.5325
 11
39.307
 21
-67.6275
  0
LINE
  5
4CB
100
AcDbEntity
  8
BLACK
  6
ByLayer
 62
  256
370
   -1
100
AcDbLine
 10
38.926
 20
-69.5325
 11
38.926
 21
-67.6275
  0
ARC
  5
4CC
100
AcDbEntity
  8
BLACK
  6
ByLayer
 62
  256
370
   -1
100
AcDbCircle
 10
39.116
 20
-67.6275
 40
0.1905
100
AcDbArc
 50
0
 51
180
  0
ARC
  5
4CD
100
AcDbEntity
  8
BLACK
  6
ByLayer
 62
  256
370
   -1
100
AcDbCircle
 10
39.116
 20
-69.5325
 40
0.1905
100
AcDbArc
 50
180
 51
0
  0
LINE
  5
4CE
100
AcDbEntity
  8
BLACK
  6
ByLayer
 62
  256
370
   -1
100
AcDbLine
 10
39.307
 20
-69.65949999999999
 11
39.307
 21
-69.5325
  0
LINE
  5
4CF
100
AcDbEntity
  8
BLACK
  6
ByLayer
 62
  256
370
   -1
100
AcDbLine
 10
38.926
 20
-69.65949999999999
 11
38.926
 21
-69.5325
  0
ARC
  5
4D0
100
AcDbEntity
  8
BLACK
  6
ByLayer
 62
  256
370
   -1
100
AcDbCircle
 10
39.116
 20
-69.5325
 40
0.1905
100
AcDbArc
 50
0
 51
180
  0
ARC
  5
4D1
100
AcDbEntity
  8
BLACK
  6
ByLayer
 62
  256
370
   -1
100
AcDbCircle
 10
39.116
 20
-69.65949999999999
 40
0.1905
100
AcDbArc
 50
180
 51
0
  0
LINE
  5
4D2
100
AcDbEntity
  8
BLACK
  6
ByLayer
 62
  256
370
   -1
100
AcDbLine
 10
32.004
 20
-69.8505
 11
39.116
 21
-69.8505
  0
LINE
  5
4D3
100
AcDbEntity
  8
BLACK
  6
ByLayer
 62
  256
370
   -1
100
AcDbLine
 10
32.004
 20
-69.4695
 11
39.116
 21
-69.4695
  0
ARC
  5
4D4
100
AcDbEntity
  8
BLACK
  6
ByLayer
 62
  256
370
   -1
100
AcDbCircle
 10
39.116
 20
-69.65949999999999
 40
0.1905
100
AcDbArc
 50
270
 51
90
  0
ARC
  5
4D5
100
AcDbEntity
  8
BLACK
  6
ByLayer
 62
  256
370
   -1
100
AcDbCircle
 10
32.004
 20
-69.65949999999999
 40
0.1905
100
AcDbArc
 50
90
 51
270
  0
LINE
  5
4D6
100
AcDbEntity
  8
BLACK
  6
ByLayer
 62
  256
370
   -1
100
AcDbLine
 10
32.195
 20
-69.65949999999999
 11
32.195
 21
-67.6275
  0
LINE
  5
4D7
100
AcDbEntity
  8
BLACK
  6
ByLayer
 62
  256
370
   -1
100
AcDbLine
 10
31.814
 20
-69.65949999999999
 11
31.814
 21
-67.6275
  0
ARC
  5
4D8
100
AcDbEntity
  8
BLACK
  6
ByLayer
 62
  256
370
   -1
100
AcDbCircle
 10
32.004
 20
-67.6275
 40
0.1905
100
AcDbArc
 50
0
 51
180
  0
ARC
  5
4D9
100
AcDbEntity
  8
BLACK
  6
ByLayer
 62
  256
370
   -1
100
AcDbCircle
 10
32.004
 20
-69.65949999999999
 40
0.1905
100
AcDbArc
 50
180
 51
0
  0
LINE
  5
4DA
100
AcDbEntity
  8
BLACK
  6
ByLayer
 62
  256
370
   -1
100
AcDbLine
 10
30.988
 20
-75.6925
 11
40.132
 21
-75.6925
  0
LINE
  5
4DB
100
AcDbEntity
  8
BLACK
  6
ByLayer
 62
  256
370
   -1
100
AcDbLine
 10
30.988
 20
-75.3115
 11
40.132
 21
-75.3115
  0
ARC
  5
4DC
100
AcDbEntity
  8
BLACK
  6
ByLayer
 62
  256
370
   -1
100
AcDbCircle
 10
40.132
 20
-75.50149999999999
 40
0.1905
100
AcDbArc
 50
270
 51
90
  0
ARC
  5
4DD
100
AcDbEntity
  8
BLACK
  6
ByLayer
 62
  256
370
   -1
100
AcDbCircle
 10
30.988
 20
-75.50149999999999
 40
0.1905
100
AcDbArc
 50
90
 51
270
  0
LINE
  5
4DE
100
AcDbEntity
  8
BLACK
  6
ByLayer
 62
  256
370
   -1
100
AcDbLine
 10
30.988
 20
-61.9765
 11
40.132
 21
-61.9765
  0
LINE
  5
4DF
100
AcDbEntity
  8
BLACK
  6
ByLayer
 62
  256
370
   -1
100
AcDbLine
 10
30.988
 20
-61.5955
 11
40.132
 21
-61.5955
  0
ARC
  5
4E0
100
AcDbEntity
  8
BLACK
  6
ByLayer
 62
  256
370
   -1
100
AcDbCircle
 10
40.132
 20
-61.7855
 40
0.1905
100
AcDbArc
 50
270
 51
90
  0
ARC
  5
4E1
100
AcDbEntity
  8
BLACK
  6
ByLayer
 62
  256
370
   -1
100
AcDbCircle
 10
30.988
 20
-61.7855
 40
0.1905
100
AcDbArc
 50
90
 51
270
  0
LINE
  5
4E2
100
AcDbEntity
  8
BLACK
  6
ByLayer
 62
  256
370
   -1
100
AcDbLine
 10
40.323
 20
-62.1665
 11
40.323
 21
-61.2775
  0
LINE
  5
4E3
100
AcDbEntity
  8
BLACK
  6
ByLayer
 62
  256
370
   -1
100
AcDbLine
 10
39.942
 20
-62.1665
 11
39.942
 21
-61.2775
  0
ARC
  5
4E4
100
AcDbEntity
  8
BLACK
  6
ByLayer
 62
  256
370
   -1
100
AcDbCircle
 10
40.132
 20
-61.2775
 40
0.1905
100
AcDbArc
 50
0
 51
180
  0
ARC
  5
4E5
100
AcDbEntity
  8
BLACK
  6
ByLayer
 62
  256
370
   -1
100
AcDbCircle
 10
40.132
 20
-62.1665
 40
0.1905
100
AcDbArc
 50
180
 51
0
  0
LINE
  5
4E6
100
AcDbEntity
  8
BLACK
  6
ByLayer
 62
  256
370
   -1
100
AcDbLine
 10
41.783
 20
-64.2625
 11
43.053
 21
-64.2625
  0
LINE
  5
4E7
100
AcDbEntity
  8
BLACK
  6
ByLayer
 62
  256
370
   -1
100
AcDbLine
 10
41.783
 20
-63.8815
 11
43.053
 21
-63.8815
  0
ARC
  5
4E8
100
AcDbEntity
  8
BLACK
  6
ByLayer
 62
  256
370
   -1
100
AcDbCircle
 10
43.053
 20
-64.0715
 40
0.1905
100
AcDbArc
 50
270
 51
90
  0
ARC
  5
4E9
100
AcDbEntity
  8
BLACK
  6
ByLayer
 62
  256
370
   -1
100
AcDbCircle
 10
41.783
 20
-64.0715
 40
0.1905
100
AcDbArc
 50
90
 51
270
  0
LINE
  5
4EA
100
AcDbEntity
  8
BLACK
  6
ByLayer
 62
  256
370
   -1
100
AcDbLine
 10
31.179
 20
-62.2935
 11
31.179
 21
-61.1505
  0
LINE
  5
4EB
100
AcDbEntity
  8
BLACK
  6
ByLayer
 62
  256
370
   -1
100
AcDbLine
 10
30.798
 20
-62.2935
 11
30.798
 21
-61.1505
  0
ARC
  5
4EC
100
AcDbEntity
  8
BLACK
  6
ByLayer
 62
  256
370
   -1
100
AcDbCircle
 10
30.988
 20
-61.1505
 40
0.1905
100
AcDbArc
 50
0
 51
180
  0
ARC
  5
4ED
100
AcDbEntity
  8
BLACK
  6
ByLayer
 62
  256
370
   -1
100
AcDbCircle
 10
30.988
 20
-62.2935
 40
0.1905
100
AcDbArc
 50
180
 51
0
  0
LINE
  5
4EE
100
AcDbEntity
  8
BLACK
  6
ByLayer
 62
  256
370
   -1
100
AcDbLine
 10
28.067
 20
-64.2625
 11
29.21
 21
-64.2625
  0
LINE
  5
4EF
100
AcDbEntity
  8
BLACK
  6
ByLayer
 62
  256
370
   -1
100
AcDbLine
 10
28.067
 20
-63.8815
 11
29.21
 21
-63.8815
  0
ARC
  5
4F0
100
AcDbEntity
  8
BLACK
  6
ByLayer
 62
  256
370
   -1
100
AcDbCircle
 10
29.21
 20
-64.0715
 40
0.1905
100
AcDbArc
 50
270
 51
90
  0
ARC
  5
4F1
100
AcDbEntity
  8
BLACK
  6
ByLayer
 62
  256
370
   -1
100
AcDbCircle
 10
28.067
 20
-64.0715
 40
0.1905
100
AcDbArc
 50
90
 51
270
  0
LINE
  5
4F2
100
AcDbEntity
  8
BLACK
  6
ByLayer
 62
  256
370
   -1
100
AcDbLine
 10
28.067
 20
-73.40649999999999
 11
29.21
 21
-73.40649999999999
  0
LINE
  5
4F3
100
AcDbEntity
  8
BLACK
  6
ByLayer
 62
  256
370
   -1
100
AcDbLine
 10
28.067
 20
-73.02549999999999
 11
29.21
 21
-73.02549999999999
  0
ARC
  5
4F4
100
AcDbEntity
  8
BLACK
  6
ByLayer
 62
  256
370
   -1
100
AcDbCircle
 10
29.21
 20
-73.21550000000001
 40
0.1905
100
AcDbArc
 50
270
 51
90
  0
ARC
  5
4F5
100
AcDbEntity
  8
BLACK
  6
ByLayer
 62
  256
370
   -1
100
AcDbCircle
 10
28.067
 20
-73.21550000000001
 40
0.1905
100
AcDbArc
 50
90
 51
270
  0
LINE
  5
4F6
100
AcDbEntity
  8
BLACK
  6
ByLayer
 62
  256
370
   -1
100
AcDbLine
 10
31.179
 20
-76.1365
 11
31.179
 21
-74.9935
  0
LINE
  5
4F7
100
AcDbEntity
  8
BLACK
  6
ByLayer
 62
  256
370
   -1
100
AcDbLine
 10
30.798
 20
-76.1365
 11
30.798
 21
-74.9935
  0
ARC
  5
4F8
100
AcDbEntity
  8
BLACK
  6
ByLayer
 62
  256
370
   -1
100
AcDbCircle
 10
30.988
 20
-74.9935
 40
0.1905
100
AcDbArc
 50
0
 51
180
  0
ARC
  5
4F9
100
AcDbEntity
  8
BLACK
  6
ByLayer
 62
  256
370
   -1
100
AcDbCircle
 10
30.988
 20
-76.1365
 40
0.1905
100
AcDbArc
 50
180
 51
0
  0
LINE
  5
4FA
100
AcDbEntity
  8
BLACK
  6
ByLayer
 62
  256
370
   -1
100
AcDbLine
 10
41.91
 20
-73.40649999999999
 11
43.053
 21
-73.40649999999999
  0
LINE
  5
4FB
100
AcDbEntity
  8
BLACK
  6
ByLayer
 62
  256
370
   -1
100
AcDbLine
 10
41.91
 20
-73.02549999999999
 11
43.053
 21
-73.02549999999999
  0
ARC
  5
4FC
100
AcDbEntity
  8
BLACK
  6
ByLayer
 62
  256
370
   -1
100
AcDbCircle
 10
43.053
 20
-73.21550000000001
 40
0.1905
100
AcDbArc
 50
270
 51
90
  0
ARC
  5
4FD
100
AcDbEntity
  8
BLACK
  6
ByLayer
 62
  256
370
   -1
100
AcDbCircle
 10
41.91
 20
-73.21550000000001
 40
0.1905
100
AcDbArc
 50
90
 51
270
  0
LINE
  5
4FE
100
AcDbEntity
  8
BLACK
  6
ByLayer
 62
  256
370
   -1
100
AcDbLine
 10
40.323
 20
-76.1365
 11
40.323
 21
-74.9935
  0
LINE
  5
4FF
100
AcDbEntity
  8
BLACK
  6
ByLayer
 62
  256
370
   -1
100
AcDbLine
 10
39.942
 20
-76.1365
 11
39.942
 21
-74.9935
  0
ARC
  5
500
100
AcDbEntity
  8
BLACK
  6
ByLayer
 62
  256
370
   -1
100
AcDbCircle
 10
40.132
 20
-74.9935
 40
0.1905
100
AcDbArc
 50
0
 51
180
  0
ARC
  5
501
100
AcDbEntity
  8
BLACK
  6
ByLayer
 62
  256
370
   -1
100
AcDbCircle
 10
40.132
 20
-76.1365
 40
0.1905
100
AcDbArc
 50
180
 51
0
  0
ARC
  5
502
100
AcDbEntity
  8
BLACK
  6
ByLayer
 62
  256
370
   -1
100
AcDbCircle
 10
41.91
 20
-74.9935
 40
1.778
100
AcDbArc
 50
90
 51
180
  0
ARC
  5
503
100
AcDbEntity
  8
BLACK
  6
ByLayer
 62
  256
370
   -1
100
AcDbCircle
 10
29.21
 20
-74.9935
 40
1.778
100
AcDbArc
 50
0
 51
90
  0
ARC
  5
504
100
AcDbEntity
  8
BLACK
  6
ByLayer
 62
  256
370
   -1
100
AcDbCircle
 10
41.91
 20
-62.2935
 40
1.78253
100
AcDbArc
 50
175.9
 51
265.9
  0
ARC
  5
505
100
AcDbEntity
  8
BLACK
  6
ByLayer
 62
  256
370
   -1
100
AcDbCircle
 10
29.21
 20
-62.2935
 40
1.778
100
AcDbArc
 50
270
 51
0
  0
LINE
  5
506
100
AcDbEntity
  8
BLACK
  6
ByLayer
 62
  256
370
   -1
100
AcDbLine
 10
43.244
 20
-76.1365
 11
43.244
 21
-61.1505
  0
LINE
  5
507
100
AcDbEntity
  8
BLACK
  6
ByLayer
 62
  256
370
   -1
100
AcDbLine
 10
42.863
 20
-76.1365
 11
42.863
 21
-61.1505
  0
ARC
  5
508
100
AcDbEntity
  8
BLACK
  6
ByLayer
 62
  256
370
   -1
100
AcDbCircle
 10
43.053
 20
-61.1505
 40
0.1905
100
AcDbArc
 50
0
 51
180
  0
ARC
  5
509
100
AcDbEntity
  8
BLACK
  6
ByLayer
 62
  256
370
   -1
100
AcDbCircle
 10
43.053
 20
-76.1365
 40
0.1905
100
AcDbArc
 50
180
 51
0
  0
LINE
  5
50A
100
AcDbEntity
  8
BLACK
  6
ByLayer
 62
  256
370
   -1
100
AcDbLine
 10
28.067
 20
-61.3415
 11
43.053
 21
-61.3415
  0
LINE
  5
50B
100
AcDbEntity
  8
BLACK
  6
ByLayer
 62
  256
370
   -1
100
AcDbLine
 10
28.067
 20
-60.9605
 11
43.053
 21
-60.9605
  0
ARC
  5
50C
100
AcDbEntity
  8
BLACK
  6
ByLayer
 62
  256
370
   -1
100
AcDbCircle
 10
43.053
 20
-61.1505
 40
0.1905
100
AcDbArc
 50
270
 51
90
  0
ARC
  5
50D
100
AcDbEntity
  8
BLACK
  6
ByLayer
 62
  256
370
   -1
100
AcDbCircle
 10
28.067
 20
-61.1505
 40
0.1905
100
AcDbArc
 50
90
 51
270
  0
LINE
  5
50E
100
AcDbEntity
  8
BLACK
  6
ByLayer
 62
  256
370
   -1
100
AcDbLine
 10
28.258
 20
-76.1365
 11
28.258
 21
-61.1505
  0
LINE
  5
50F
100
AcDbEntity
  8
BLACK
  6
ByLayer
 62
  256
370
   -1
100
AcDbLine
 10
27.877
 20
-76.1365
 11
27.877
 21
-61.1505
  0
ARC
  5
510
100
AcDbEntity
  8
BLACK
  6
ByLayer
 62
  256
370
   -1
100
AcDbCircle
 10
28.067
 20
-61.1505
 40
0.1905
100
AcDbArc
 50
0
 51
180
  0
ARC
  5
511
100
AcDbEntity
  8
BLACK
  6
ByLayer
 62
  256
370
   -1
100
AcDbCircle
 10
28.067
 20
-76.1365
 40
0.1905
100
AcDbArc
 50
180
 51
0
  0
LINE
  5
512
100
AcDbEntity
  8
BLACK
  6
ByLayer
 62
  256
370
   -1
100
AcDbLine
 10
28.067
 20
-76.3275
 11
43.053
 21
-76.3275
  0
LINE
  5
513
100
AcDbEntity
  8
BLACK
  6
ByLayer
 62
  256
370
   -1
100
AcDbLine
 10
28.067
 20
-75.9465
 11
43.053
 21
-75.9465
  0
ARC
  5
514
100
AcDbEntity
  8
BLACK
  6
ByLayer
 62
  256
370
   -1
100
AcDbCircle
 10
43.053
 20
-76.1365
 40
0.1905
100
AcDbArc
 50
270
 51
90
  0
ARC
  5
515
100
AcDbEntity
  8
BLACK
  6
ByLayer
 62
  256
370
   -1
100
AcDbCircle
 10
28.067
 20
-76.1365
 40
0.1905
100
AcDbArc
 50
90
 51
270
  0
LINE
  5
516
100
AcDbEntity
  8
BLACK
  6
ByLayer
 62
  256
370
   -1
100
AcDbLine
 10
57.023
 20
-67.8185
 11
64.13500000000001
 21
-67.8185
  0
LINE
  5
517
100
AcDbEntity
  8
BLACK
  6
ByLayer
 62
  256
370
   -1
100
AcDbLine
 10
57.023
 20
-67.4375
 11
64.13500000000001
 21
-67.4375
  0
ARC
  5
518
100
AcDbEntity
  8
BLACK
  6
ByLayer
 62
  256
370
   -1
100
AcDbCircle
 10
64.13500000000001
 20
-67.6275
 40
0.1905
100
AcDbArc
 50
270
 51
90
  0
ARC
  5
519
100
AcDbEntity
  8
BLACK
  6
ByLayer
 62
  256
370
   -1
100
AcDbCircle
 10
57.023
 20
-67.6275
 40
0.1905
100
AcDbArc
 50
90
 51
270
  0
LINE
  5
51A
100
AcDbEntity
  8
BLACK
  6
ByLayer
 62
  256
370
   -1
100
AcDbLine
 10
64.32599999999999
 20
-69.5325
 11
64.32599999999999
 21
-67.6275
  0
LINE
  5
51B
100
AcDbEntity
  8
BLACK
  6
ByLayer
 62
  256
370
   -1
100
AcDbLine
 10
63.945
 20
-69.5325
 11
63.945
 21
-67.6275
  0
ARC
  5
51C
100
AcDbEntity
  8
BLACK
  6
ByLayer
 62
  256
370
   -1
100
AcDbCircle
 10
64.13500000000001
 20
-67.6275
 40
0.1905
100
AcDbArc
 50
0
 51
180
  0
ARC
  5
51D
100
AcDbEntity
  8
BLACK
  6
ByLayer
 62
  256
370
   -1
100
AcDbCircle
 10
64.13500000000001
 20
-69.5325
 40
0.1905
100
AcDbArc
 50
180
 51
0
  0
LINE
  5
51E
100
AcDbEntity
  8
BLACK
  6
ByLayer
 62
  256
370
   -1
100
AcDbLine
 10
64.32599999999999
 20
-69.65949999999999
 11
64.32599999999999
 21
-69.5325
  0
LINE
  5
51F
100
AcDbEntity
  8
BLACK
  6
ByLayer
 62
  256
370
   -1
100
AcDbLine
 10
63.945
 20
-69.65949999999999
 11
63.945
 21
-69.5325
  0
ARC
  5
520
100
AcDbEntity
  8
BLACK
  6
ByLayer
 62
  256
370
   -1
100
AcDbCircle
 10
64.13500000000001
 20
-69.5325
 40
0.1905
100
AcDbArc
 50
0
 51
180
  0
ARC
  5
521
100
AcDbEntity
  8
BLACK
  6
ByLayer
 62
  256
370
   -1
100
AcDbCircle
 10
64.13500000000001
 20
-69.65949999999999
 40
0.1905
100
AcDbArc
 50
180
 51
0
  0
LINE
  5
522
100
AcDbEntity
  8
BLACK
  6
ByLayer
 62
  256
370
   -1
100
AcDbLine
 10
57.023
 20
-69.8505
 11
64.13500000000001
 21
-69.8505
  0
LINE
  5
523
100
AcDbEntity
  8
BLACK
  6
ByLayer
 62
  256
370
   -1
100
AcDbLine
 10
57.023
 20
-69.4695
 11
64.13500000000001
 21
-69.4695
  0
ARC
  5
524
100
AcDbEntity
  8
BLACK
  6
ByLayer
 62
  256
370
   -1
100
AcDbCircle
 10
64.13500000000001
 20
-69.65949999999999
 40
0.1905
100
AcDbArc
 50
270
 51
90
  0
ARC
  5
525
100
AcDbEntity
  8
BLACK
  6
ByLayer
 62
  256
370
   -1
100
AcDbCircle
 10
57.023
 20
-69.65949999999999
 40
0.1905
100
AcDbArc
 50
90
 51
270
  0
LINE
  5
526
100
AcDbEntity
  8
BLACK
  6
ByLayer
 62
  256
370
   -1
100
AcDbLine
 10
57.214
 20
-69.65949999999999
 11
57.214
 21
-67.6275
  0
LINE
  5
527
100
AcDbEntity
  8
BLACK
  6
ByLayer
 62
  256
370
   -1
100
AcDbLine
 10
56.833
 20
-69.65949999999999
 11
56.833
 21
-67.6275
  0
ARC
  5
528
100
AcDbEntity
  8
BLACK
  6
ByLayer
 62
  256
370
   -1
100
AcDbCircle
 10
57.023
 20
-67.6275
 40
0.1905
100
AcDbArc
 50
0
 51
180
  0
ARC
  5
529
100
AcDbEntity
  8
BLACK
  6
ByLayer
 62
  256
370
   -1
100
AcDbCircle
 10
57.023
 20
-69.65949999999999
 40
0.1905
100
AcDbArc
 50
180
 51
0
  0
LINE
  5
52A
100
AcDbEntity
  8
BLACK
  6
ByLayer
 62
  256
370
   -1
100
AcDbLine
 10
56.007
 20
-75.6925
 11
65.151
 21
-75.6925
  0
LINE
  5
52B
100
AcDbEntity
  8
BLACK
  6
ByLayer
 62
  256
370
   -1
100
AcDbLine
 10
56.007
 20
-75.3115
 11
65.151
 21
-75.3115
  0
ARC
  5
52C
100
AcDbEntity
  8
BLACK
  6
ByLayer
 62
  256
370
   -1
100
AcDbCircle
 10
65.151
 20
-75.50149999999999
 40
0.1905
100
AcDbArc
 50
270
 51
90
  0
ARC
  5
52D
100
AcDbEntity
  8
BLACK
  6
ByLayer
 62
  256
370
   -1
100
AcDbCircle
 10
56.007
 20
-75.50149999999999
 40
0.1905
100
AcDbArc
 50
90
 51
270
  0
LINE
  5
52E
100
AcDbEntity
  8
BLACK
  6
ByLayer
 62
  256
370
   -1
100
AcDbLine
 10
56.007
 20
-61.9765
 11
65.151
 21
-61.9765
  0
LINE
  5
52F
100
AcDbEntity
  8
BLACK
  6
ByLayer
 62
  256
370
   -1
100
AcDbLine
 10
56.007
 20
-61.5955
 11
65.151
 21
-61.5955
  0
ARC
  5
530
100
AcDbEntity
  8
BLACK
  6
ByLayer
 62
  256
370
   -1
100
AcDbCircle
 10
65.151
 20
-61.7855
 40
0.1905
100
AcDbArc
 50
270
 51
90
  0
ARC
  5
531
100
AcDbEntity
  8
BLACK
  6
ByLayer
 62
  256
370
   -1
100
AcDbCircle
 10
56.007
 20
-61.7855
 40
0.1905
100
AcDbArc
 50
90
 51
270
  0
LINE
  5
532
100
AcDbEntity
  8
BLACK
  6
ByLayer
 62
  256
370
   -1
100
AcDbLine
 10
65.342
 20
-62.1665
 11
65.342
 21
-61.2775
  0
LINE
  5
533
100
AcDbEntity
  8
BLACK
  6
ByLayer
 62
  256
370
   -1
100
AcDbLine
 10
64.961
 20
-62.1665
 11
64.961
 21
-61.2775
  0
ARC
  5
534
100
AcDbEntity
  8
BLACK
  6
ByLayer
 62
  256
370
   -1
100
AcDbCircle
 10
65.151
 20
-61.2775
 40
0.1905
100
AcDbArc
 50
0
 51
180
  0
ARC
  5
535
100
AcDbEntity
  8
BLACK
  6
ByLayer
 62
  256
370
   -1
100
AcDbCircle
 10
65.151
 20
-62.1665
 40
0.1905
100
AcDbArc
 50
180
 51
0
  0
LINE
  5
536
100
AcDbEntity
  8
BLACK
  6
ByLayer
 62
  256
370
   -1
100
AcDbLine
 10
66.80200000000001
 20
-64.2625
 11
68.072
 21
-64.2625
  0
LINE
  5
537
100
AcDbEntity
  8
BLACK
  6
ByLayer
 62
  256
370
   -1
100
AcDbLine
 10
66.80200000000001
 20
-63.8815
 11
68.072
 21
-63.8815
  0
ARC
  5
538
100
AcDbEntity
  8
BLACK
  6
ByLayer
 62
  256
370
   -1
100
AcDbCircle
 10
68.072
 20
-64.0715
 40
0.1905
100
AcDbArc
 50
270
 51
90
  0
ARC
  5
539
100
AcDbEntity
  8
BLACK
  6
ByLayer
 62
  256
370
   -1
100
AcDbCircle
 10
66.80200000000001
 20
-64.0715
 40
0.1905
100
AcDbArc
 50
90
 51
270
  0
LINE
  5
53A
100
AcDbEntity
  8
BLACK
  6
ByLayer
 62
  256
370
   -1
100
AcDbLine
 10
56.198
 20
-62.2935
 11
56.198
 21
-61.1505
  0
LINE
  5
53B
100
AcDbEntity
  8
BLACK
  6
ByLayer
 62
  256
370
   -1
100
AcDbLine
 10
55.817
 20
-62.2935
 11
55.817
 21
-61.1505
  0
ARC
  5
53C
100
AcDbEntity
  8
BLACK
  6
ByLayer
 62
  256
370
   -1
100
AcDbCircle
 10
56.007
 20
-61.1505
 40
0.1905
100
AcDbArc
 50
0
 51
180
  0
ARC
  5
53D
100
AcDbEntity
  8
BLACK
  6
ByLayer
 62
  256
370
   -1
100
AcDbCircle
 10
56.007
 20
-62.2935
 40
0.1905
100
AcDbArc
 50
180
 51
0
  0
LINE
  5
53E
100
AcDbEntity
  8
BLACK
  6
ByLayer
 62
  256
370
   -1
100
AcDbLine
 10
53.086
 20
-64.2625
 11
54.229
 21
-64.2625
  0
LINE
  5
53F
100
AcDbEntity
  8
BLACK
  6
ByLayer
 62
  256
370
   -1
100
AcDbLine
 10
53.086
 20
-63.8815
 11
54.229
 21
-63.8815
  0
ARC
  5
540
100
AcDbEntity
  8
BLACK
  6
ByLayer
 62
  256
370
   -1
100
AcDbCircle
 10
54.229
 20
-64.0715
 40
0.1905
100
AcDbArc
 50
270
 51
90
  0
ARC
  5
541
100
AcDbEntity
  8
BLACK
  6
ByLayer
 62
  256
370
   -1
100
AcDbCircle
 10
53.086
 20
-64.0715
 40
0.1905
100
AcDbArc
 50
90
 51
270
  0
LINE
  5
542
100
AcDbEntity
  8
BLACK
  6
ByLayer
 62
  256
370
   -1
100
AcDbLine
 10
53.086
 20
-73.40649999999999
 11
54.229
 21
-73.40649999999999
  0
LINE
  5
543
100
AcDbEntity
  8
BLACK
  6
ByLayer
 62
  256
370
   -1
100
AcDbLine
 10
53.086
 20
-73.02549999999999
 11
54.229
 21
-73.02549999999999
  0
ARC
  5
544
100
AcDbEntity
  8
BLACK
  6
ByLayer
 62
  256
370
   -1
100
AcDbCircle
 10
54.229
 20
-73.21550000000001
 40
0.1905
100
AcDbArc
 50
270
 51
90
  0
ARC
  5
545
100
AcDbEntity
  8
BLACK
  6
ByLayer
 62
  256
370
   -1
100
AcDbCircle
 10
53.086
 20
-73.21550000000001
 40
0.1905
100
AcDbArc
 50
90
 51
270
  0
LINE
  5
546
100
AcDbEntity
  8
BLACK
  6
ByLayer
 62
  256
370
   -1
100
AcDbLine
 10
56.198
 20
-76.1365
 11
56.198
 21
-74.9935
  0
LINE
  5
547
100
AcDbEntity
  8
BLACK
  6
ByLayer
 62
  256
370
   -1
100
AcDbLine
 10
55.817
 20
-76.1365
 11
55.817
 21
-74.9935
  0
ARC
  5
548
100
AcDbEntity
  8
BLACK
  6
ByLayer
 62
  256
370
   -1
100
AcDbCircle
 10
56.007
 20
-74.9935
 40
0.1905
100
AcDbArc
 50
0
 51
180
  0
ARC
  5
549
100
AcDbEntity
  8
BLACK
  6
ByLayer
 62
  256
370
   -1
100
AcDbCircle
 10
56.007
 20
-76.1365
 40
0.1905
100
AcDbArc
 50
180
 51
0
  0
LINE
  5
54A
100
AcDbEntity
  8
BLACK
  6
ByLayer
 62
  256
370
   -1
100
AcDbLine
 10
66.929
 20
-73.40649999999999
 11
68.072
 21
-73.40649999999999
  0
LINE
  5
54B
100
AcDbEntity
  8
BLACK
  6
ByLayer
 62
  256
370
   -1
100
AcDbLine
 10
66.929
 20
-73.02549999999999
 11
68.072
 21
-73.02549999999999
  0
ARC
  5
54C
100
AcDbEntity
  8
BLACK
  6
ByLayer
 62
  256
370
   -1
100
AcDbCircle
 10
68.072
 20
-73.21550000000001
 40
0.1905
100
AcDbArc
 50
270
 51
90
  0
ARC
  5
54D
100
AcDbEntity
  8
BLACK
  6
ByLayer
 62
  256
370
   -1
100
AcDbCircle
 10
66.929
 20
-73.21550000000001
 40
0.1905
100
AcDbArc
 50
90
 51
270
  0
LINE
  5
54E
100
AcDbEntity
  8
BLACK
  6
ByLayer
 62
  256
370
   -1
100
AcDbLine
 10
65.342
 20
-76.1365
 11
65.342
 21
-74.9935
  0
LINE
  5
54F
100
AcDbEntity
  8
BLACK
  6
ByLayer
 62
  256
370
   -1
100
AcDbLine
 10
64.961
 20
-76.1365
 11
64.961
 21
-74.9935
  0
ARC
  5
550
100
AcDbEntity
  8
BLACK
  6
ByLayer
 62
  256
370
   -1
100
AcDbCircle
 10
65.151
 20
-74.9935
 40
0.1905
100
AcDbArc
 50
0
 51
180
  0
ARC
  5
551
100
AcDbEntity
  8
BLACK
  6
ByLayer
 62
  256
370
   -1
100
AcDbCircle
 10
65.151
 20
-76.1365
 40
0.1905
100
AcDbArc
 50
180
 51
0
  0
ARC
  5
552
100
AcDbEntity
  8
BLACK
  6
ByLayer
 62
  256
370
   -1
100
AcDbCircle
 10
66.929
 20
-74.9935
 40
1.778
100
AcDbArc
 50
90
 51
180
  0
ARC
  5
553
100
AcDbEntity
  8
BLACK
  6
ByLayer
 62
  256
370
   -1
100
AcDbCircle
 10
54.229
 20
-74.9935
 40
1.778
100
AcDbArc
 50
0
 51
90
  0
ARC
  5
554
100
AcDbEntity
  8
BLACK
  6
ByLayer
 62
  256
370
   -1
100
AcDbCircle
 10
66.929
 20
-62.2935
 40
1.78253
100
AcDbArc
 50
175.9
 51
265.9
  0
ARC
  5
555
100
AcDbEntity
  8
BLACK
  6
ByLayer
 62
  256
370
   -1
100
AcDbCircle
 10
54.229
 20
-62.2935
 40
1.778
100
AcDbArc
 50
270
 51
0
  0
LINE
  5
556
100
AcDbEntity
  8
BLACK
  6
ByLayer
 62
  256
370
   -1
100
AcDbLine
 10
68.26300000000001
 20
-76.1365
 11
68.26300000000001
 21
-61.1505
  0
LINE
  5
557
100
AcDbEntity
  8
BLACK
  6
ByLayer
 62
  256
370
   -1
100
AcDbLine
 10
67.88200000000001
 20
-76.1365
 11
67.88200000000001
 21
-61.1505
  0
ARC
  5
558
100
AcDbEntity
  8
BLACK
  6
ByLayer
 62
  256
370
   -1
100
AcDbCircle
 10
68.072
 20
-61.1505
 40
0.1905
100
AcDbArc
 50
0
 51
180
  0
ARC
  5
559
100
AcDbEntity
  8
BLACK
  6
ByLayer
 62
  256
370
   -1
100
AcDbCircle
 10
68.072
 20
-76.1365
 40
0.1905
100
AcDbArc
 50
180
 51
0
  0
LINE
  5
55A
100
AcDbEntity
  8
BLACK
  6
ByLayer
 62
  256
370
   -1
100
AcDbLine
 10
53.086
 20
-61.3415
 11
68.072
 21
-61.3415
  0
LINE
  5
55B
100
AcDbEntity
  8
BLACK
  6
ByLayer
 62
  256
370
   -1
100
AcDbLine
 10
53.086
 20
-60.9605
 11
68.072
 21
-60.9605
  0
ARC
  5
55C
100
AcDbEntity
  8
BLACK
  6
ByLayer
 62
  256
370
   -1
100
AcDbCircle
 10
68.072
 20
-61.1505
 40
0.1905
100
AcDbArc
 50
270
 51
90
  0
ARC
  5
55D
100
AcDbEntity
  8
BLACK
  6
ByLayer
 62
  256
370
   -1
100
AcDbCircle
 10
53.086
 20
-61.1505
 40
0.1905
100
AcDbArc
 50
90
 51
270
  0
LINE
  5
55E
100
AcDbEntity
  8
BLACK
  6
ByLayer
 62
  256
370
   -1
100
AcDbLine
 10
53.277
 20
-76.1365
 11
53.277
 21
-61.1505
  0
LINE
  5
55F
100
AcDbEntity
  8
BLACK
  6
ByLayer
 62
  256
370
   -1
100
AcDbLine
 10
52.896
 20
-76.1365
 11
52.896
 21
-61.1505
  0
ARC
  5
560
100
AcDbEntity
  8
BLACK
  6
ByLayer
 62
  256
370
   -1
100
AcDbCircle
 10
53.086
 20
-61.1505
 40
0.1905
100
AcDbArc
 50
0
 51
180
  0
ARC
  5
561
100
AcDbEntity
  8
BLACK
  6
ByLayer
 62
  256
370
   -1
100
AcDbCircle
 10
53.086
 20
-76.1365
 40
0.1905
100
AcDbArc
 50
180
 51
0
  0
LINE
  5
562
100
AcDbEntity
  8
BLACK
  6
ByLayer
 62
  256
370
   -1
100
AcDbLine
 10
53.086
 20
-76.3275
 11
68.072
 21
-76.3275
  0
LINE
  5
563
100
AcDbEntity
  8
BLACK
  6
ByLayer
 62
  256
370
   -1
100
AcDbLine
 10
53.086
 20
-75.9465
 11
68.072
 21
-75.9465
  0
ARC
  5
564
100
AcDbEntity
  8
BLACK
  6
ByLayer
 62
  256
370
   -1
100
AcDbCircle
 10
68.072
 20
-76.1365
 40
0.1905
100
AcDbArc
 50
270
 51
90
  0
ARC
  5
565
100
AcDbEntity
  8
BLACK
  6
ByLayer
 62
  256
370
   -1
100
AcDbCircle
 10
53.086
 20
-76.1365
 40
0.1905
100
AcDbArc
 50
90
 51
270
  0
LINE
  5
566
100
AcDbEntity
  8
BLACK
  6
ByLayer
 62
  256
370
   -1
100
AcDbLine
 10
81.026
 20
-22.225
 11
88.13800000000001
 21
-22.225
  0
LINE
  5
567
100
AcDbEntity
  8
BLACK
  6
ByLayer
 62
  256
370
   -1
100
AcDbLine
 10
81.026
 20
-21.844
 11
88.13800000000001
 21
-21.844
  0
ARC
  5
568
100
AcDbEntity
  8
BLACK
  6
ByLayer
 62
  256
370
   -1
100
AcDbCircle
 10
88.13800000000001
 20
-22.0345
 40
0.1905
100
AcDbArc
 50
270
 51
90
  0
ARC
  5
569
100
AcDbEntity
  8
BLACK
  6
ByLayer
 62
  256
370
   -1
100
AcDbCircle
 10
81.026
 20
-22.0345
 40
0.1905
100
AcDbArc
 50
90
 51
270
  0
LINE
  5
56A
100
AcDbEntity
  8
BLACK
  6
ByLayer
 62
  256
370
   -1
100
AcDbLine
 10
88.32899999999999
 20
-23.9395
 11
88.32899999999999
 21
-22.0345
  0
LINE
  5
56B
100
AcDbEntity
  8
BLACK
  6
ByLayer
 62
  256
370
   -1
100
AcDbLine
 10
87.94799999999999
 20
-23.9395
 11
87.94799999999999
 21
-22.0345
  0
ARC
  5
56C
100
AcDbEntity
  8
BLACK
  6
ByLayer
 62
  256
370
   -1
100
AcDbCircle
 10
88.13800000000001
 20
-22.0345
 40
0.1905
100
AcDbArc
 50
0
 51
180
  0
ARC
  5
56D
100
AcDbEntity
  8
BLACK
  6
ByLayer
 62
  256
370
   -1
100
AcDbCircle
 10
88.13800000000001
 20
-23.9395
 40
0.1905
100
AcDbArc
 50
180
 51
0
  0
LINE
  5
56E
100
AcDbEntity
  8
BLACK
  6
ByLayer
 62
  256
370
   -1
100
AcDbLine
 10
88.32899999999999
 20
-24.0665
 11
88.32899999999999
 21
-23.9395
  0
LINE
  5
56F
100
AcDbEntity
  8
BLACK
  6
ByLayer
 62
  256
370
   -1
100
AcDbLine
 10
87.94799999999999
 20
-24.0665
 11
87.94799999999999
 21
-23.9395
  0
ARC
  5
570
100
AcDbEntity
  8
BLACK
  6
ByLayer
 62
  256
370
   -1
100
AcDbCircle
 10
88.13800000000001
 20
-23.9395
 40
0.1905
100
AcDbArc
 50
0
 51
180
  0
ARC
  5
571
100
AcDbEntity
  8
BLACK
  6
ByLayer
 62
  256
370
   -1
100
AcDbCircle
 10
88.13800000000001
 20
-24.0665
 40
0.1905
100
AcDbArc
 50
180
 51
0
  0
LINE
  5
572
100
AcDbEntity
  8
BLACK
  6
ByLayer
 62
  256
370
   -1
100
AcDbLine
 10
81.026
 20
-24.257
 11
88.13800000000001
 21
-24.257
  0
LINE
  5
573
100
AcDbEntity
  8
BLACK
  6
ByLayer
 62
  256
370
   -1
100
AcDbLine
 10
81.026
 20
-23.876
 11
88.13800000000001
 21
-23.876
  0
ARC
  5
574
100
AcDbEntity
  8
BLACK
  6
ByLayer
 62
  256
370
   -1
100
AcDbCircle
 10
88.13800000000001
 20
-24.0665
 40
0.1905
100
AcDbArc
 50
270
 51
90
  0
ARC
  5
575
100
AcDbEntity
  8
BLACK
  6
ByLayer
 62
  256
370
   -1
100
AcDbCircle
 10
81.026
 20
-24.0665
 40
0.1905
100
AcDbArc
 50
90
 51
270
  0
LINE
  5
576
100
AcDbEntity
  8
BLACK
  6
ByLayer
 62
  256
370
   -1
100
AcDbLine
 10
81.217
 20
-24.0665
 11
81.217
 21
-22.0345
  0
LINE
  5
577
100
AcDbEntity
  8
BLACK
  6
ByLayer
 62
  256
370
   -1
100
AcDbLine
 10
80.836
 20
-24.0665
 11
80.836
 21
-22.0345
  0
ARC
  5
578
100
AcDbEntity
  8
BLACK
  6
ByLayer
 62
  256
370
   -1
100
AcDbCircle
 10
81.026
 20
-22.0345
 40
0.1905
100
AcDbArc
 50
0
 51
180
  0
ARC
  5
579
100
AcDbEntity
  8
BLACK
  6
ByLayer
 62
  256
370
   -1
100
AcDbCircle
 10
81.026
 20
-24.0665
 40
0.1905
100
AcDbArc
 50
180
 51
0
  0
LINE
  5
57A
100
AcDbEntity
  8
BLACK
  6
ByLayer
 62
  256
370
   -1
100
AcDbLine
 10
80.01000000000001
 20
-30.099
 11
89.154
 21
-30.099
  0
LINE
  5
57B
100
AcDbEntity
  8
BLACK
  6
ByLayer
 62
  256
370
   -1
100
AcDbLine
 10
80.01000000000001
 20
-29.718
 11
89.154
 21
-29.718
  0
ARC
  5
57C
100
AcDbEntity
  8
BLACK
  6
ByLayer
 62
  256
370
   -1
100
AcDbCircle
 10
89.154
 20
-29.9085
 40
0.1905
100
AcDbArc
 50
270
 51
90
  0
ARC
  5
57D
100
AcDbEntity
  8
BLACK
  6
ByLayer
 62
  256
370
   -1
100
AcDbCircle
 10
80.01000000000001
 20
-29.9085
 40
0.1905
100
AcDbArc
 50
90
 51
270
  0
LINE
  5
57E
100
AcDbEntity
  8
BLACK
  6
ByLayer
 62
  256
370
   -1
100
AcDbLine
 10
80.01000000000001
 20
-16.383
 11
89.154
 21
-16.383
  0
LINE
  5
57F
100
AcDbEntity
  8
BLACK
  6
ByLayer
 62
  256
370
   -1
100
AcDbLine
 10
80.01000000000001
 20
-16.002
 11
89.154
 21
-16.002
  0
ARC
  5
580
100
AcDbEntity
  8
BLACK
  6
ByLayer
 62
  256
370
   -1
100
AcDbCircle
 10
89.154
 20
-16.1925
 40
0.1905
100
AcDbArc
 50
270
 51
90
  0
ARC
  5
581
100
AcDbEntity
  8
BLACK
  6
ByLayer
 62
  256
370
   -1
100
AcDbCircle
 10
80.01000000000001
 20
-16.1925
 40
0.1905
100
AcDbArc
 50
90
 51
270
  0
LINE
  5
582
100
AcDbEntity
  8
BLACK
  6
ByLayer
 62
  256
370
   -1
100
AcDbLine
 10
89.345
 20
-16.5735
 11
89.345
 21
-15.6845
  0
LINE
  5
583
100
AcDbEntity
  8
BLACK
  6
ByLayer
 62
  256
370
   -1
100
AcDbLine
 10
88.964
 20
-16.5735
 11
88.964
 21
-15.6845
  0
ARC
  5
584
100
AcDbEntity
  8
BLACK
  6
ByLayer
 62
  256
370
   -1
100
AcDbCircle
 10
89.154
 20
-15.6845
 40
0.1905
100
AcDbArc
 50
0
 51
180
  0
ARC
  5
585
100
AcDbEntity
  8
BLACK
  6
ByLayer
 62
  256
370
   -1
100
AcDbCircle
 10
89.154
 20
-16.5735
 40
0.1905
100
AcDbArc
 50
180
 51
0
  0
LINE
  5
586
100
AcDbEntity
  8
BLACK
  6
ByLayer
 62
  256
370
   -1
100
AcDbLine
 10
90.80500000000001
 20
-18.669
 11
92.075
 21
-18.669
  0
LINE
  5
587
100
AcDbEntity
  8
BLACK
  6
ByLayer
 62
  256
370
   -1
100
AcDbLine
 10
90.80500000000001
 20
-18.288
 11
92.075
 21
-18.288
  0
ARC
  5
588
100
AcDbEntity
  8
BLACK
  6
ByLayer
 62
  256
370
   -1
100
AcDbCircle
 10
92.075
 20
-18.4785
 40
0.1905
100
AcDbArc
 50
270
 51
90
  0
ARC
  5
589
100
AcDbEntity
  8
BLACK
  6
ByLayer
 62
  256
370
   -1
100
AcDbCircle
 10
90.80500000000001
 20
-18.4785
 40
0.1905
100
AcDbArc
 50
90
 51
270
  0
LINE
  5
58A
100
AcDbEntity
  8
BLACK
  6
ByLayer
 62
  256
370
   -1
100
AcDbLine
 10
80.20099999999999
 20
-16.7005
 11
80.20099999999999
 21
-15.5575
  0
LINE
  5
58B
100
AcDbEntity
  8
BLACK
  6
ByLayer
 62
  256
370
   -1
100
AcDbLine
 10
79.81999999999999
 20
-16.7005
 11
79.81999999999999
 21
-15.5575
  0
ARC
  5
58C
100
AcDbEntity
  8
BLACK
  6
ByLayer
 62
  256
370
   -1
100
AcDbCircle
 10
80.01000000000001
 20
-15.5575
 40
0.1905
100
AcDbArc
 50
0
 51
180
  0
ARC
  5
58D
100
AcDbEntity
  8
BLACK
  6
ByLayer
 62
  256
370
   -1
100
AcDbCircle
 10
80.01000000000001
 20
-16.7005
 40
0.1905
100
AcDbArc
 50
180
 51
0
  0
LINE
  5
58E
100
AcDbEntity
  8
BLACK
  6
ByLayer
 62
  256
370
   -1
100
AcDbLine
 10
77.089
 20
-18.669
 11
78.232
 21
-18.669
  0
LINE
  5
58F
100
AcDbEntity
  8
BLACK
  6
ByLayer
 62
  256
370
   -1
100
AcDbLine
 10
77.089
 20
-18.288
 11
78.232
 21
-18.288
  0
ARC
  5
590
100
AcDbEntity
  8
BLACK
  6
ByLayer
 62
  256
370
   -1
100
AcDbCircle
 10
78.232
 20
-18.4785
 40
0.1905
100
AcDbArc
 50
270
 51
90
  0
ARC
  5
591
100
AcDbEntity
  8
BLACK
  6
ByLayer
 62
  256
370
   -1
100
AcDbCircle
 10
77.089
 20
-18.4785
 40
0.1905
100
AcDbArc
 50
90
 51
270
  0
LINE
  5
592
100
AcDbEntity
  8
BLACK
  6
ByLayer
 62
  256
370
   -1
100
AcDbLine
 10
77.089
 20
-27.813
 11
78.232
 21
-27.813
  0
LINE
  5
593
100
AcDbEntity
  8
BLACK
  6
ByLayer
 62
  256
370
   -1
100
AcDbLine
 10
77.089
 20
-27.432
 11
78.232
 21
-27.432
  0
ARC
  5
594
100
AcDbEntity
  8
BLACK
  6
ByLayer
 62
  256
370
   -1
100
AcDbCircle
 10
78.232
 20
-27.6225
 40
0.1905
100
AcDbArc
 50
270
 51
90
  0
ARC
  5
595
100
AcDbEntity
  8
BLACK
  6
ByLayer
 62
  256
370
   -1
100
AcDbCircle
 10
77.089
 20
-27.6225
 40
0.1905
100
AcDbArc
 50
90
 51
270
  0
LINE
  5
596
100
AcDbEntity
  8
BLACK
  6
ByLayer
 62
  256
370
   -1
100
AcDbLine
 10
80.20099999999999
 20
-30.5435
 11
80.20099999999999
 21
-29.4005
  0
LINE
  5
597
100
AcDbEntity
  8
BLACK
  6
ByLayer
 62
  256
370
   -1
100
AcDbLine
 10
79.81999999999999
 20
-30.5435
 11
79.81999999999999
 21
-29.4005
  0
ARC
  5
598
100
AcDbEntity
  8
BLACK
  6
ByLayer
 62
  256
370
   -1
100
AcDbCircle
 10
80.01000000000001
 20
-29.4005
 40
0.1905
100
AcDbArc
 50
0
 51
180
  0
ARC
  5
599
100
AcDbEntity
  8
BLACK
  6
ByLayer
 62
  256
370
   -1
100
AcDbCircle
 10
80.01000000000001
 20
-30.5435
 40
0.1905
100
AcDbArc
 50
180
 51
0
  0
LINE
  5
59A
100
AcDbEntity
  8
BLACK
  6
ByLayer
 62
  256
370
   -1
100
AcDbLine
 10
90.932
 20
-27.813
 11
92.075
 21
-27.813
  0
LINE
  5
59B
100
AcDbEntity
  8
BLACK
  6
ByLayer
 62
  256
370
   -1
100
AcDbLine
 10
90.932
 20
-27.432
 11
92.075
 21
-27.432
  0
ARC
  5
59C
100
AcDbEntity
  8
BLACK
  6
ByLayer
 62
  256
370
   -1
100
AcDbCircle
 10
92.075
 20
-27.6225
 40
0.1905
100
AcDbArc
 50
270
 51
90
  0
ARC
  5
59D
100
AcDbEntity
  8
BLACK
  6
ByLayer
 62
  256
370
   -1
100
AcDbCircle
 10
90.932
 20
-27.6225
 40
0.1905
100
AcDbArc
 50
90
 51
270
  0
LINE
  5
59E
100
AcDbEntity
  8
BLACK
  6
ByLayer
 62
  256
370
   -1
100
AcDbLine
 10
89.345
 20
-30.5435
 11
89.345
 21
-29.4005
  0
LINE
  5
59F
100
AcDbEntity
  8
BLACK
  6
ByLayer
 62
  256
370
   -1
100
AcDbLine
 10
88.964
 20
-30.5435
 11
88.964
 21
-29.4005
  0
ARC
  5
5A0
100
AcDbEntity
  8
BLACK
  6
ByLayer
 62
  256
370
   -1
100
AcDbCircle
 10
89.154
 20
-29.4005
 40
0.1905
100
AcDbArc
 50
0
 51
180
  0
ARC
  5
5A1
100
AcDbEntity
  8
BLACK
  6
ByLayer
 62
  256
370
   -1
100
AcDbCircle
 10
89.154
 20
-30.5435
 40
0.1905
100
AcDbArc
 50
180
 51
0
  0
ARC
  5
5A2
100
AcDbEntity
  8
BLACK
  6
ByLayer
 62
  256
370
   -1
100
AcDbCircle
 10
90.932
 20
-29.4005
 40
1.778
100
AcDbArc
 50
90
 51
180
  0
ARC
  5
5A3
100
AcDbEntity
  8
BLACK
  6
ByLayer
 62
  256
370
   -1
100
AcDbCircle
 10
78.232
 20
-29.4005
 40
1.778
100
AcDbArc
 50
0
 51
90
  0
ARC
  5
5A4
100
AcDbEntity
  8
BLACK
  6
ByLayer
 62
  256
370
   -1
100
AcDbCircle
 10
90.932
 20
-16.7005
 40
1.78253
100
AcDbArc
 50
175.9
 51
265.9
  0
ARC
  5
5A5
100
AcDbEntity
  8
BLACK
  6
ByLayer
 62
  256
370
   -1
100
AcDbCircle
 10
78.232
 20
-16.7005
 40
1.778
100
AcDbArc
 50
270
 51
0
  0
LINE
  5
5A6
100
AcDbEntity
  8
BLACK
  6
ByLayer
 62
  256
370
   -1
100
AcDbLine
 10
92.26600000000001
 20
-30.5435
 11
92.26600000000001
 21
-15.5575
  0
LINE
  5
5A7
100
AcDbEntity
  8
BLACK
  6
ByLayer
 62
  256
370
   -1
100
AcDbLine
 10
91.88500000000001
 20
-30.5435
 11
91.88500000000001
 21
-15.5575
  0
ARC
  5
5A8
100
AcDbEntity
  8
BLACK
  6
ByLayer
 62
  256
370
   -1
100
AcDbCircle
 10
92.075
 20
-15.5575
 40
0.1905
100
AcDbArc
 50
0
 51
180
  0
ARC
  5
5A9
100
AcDbEntity
  8
BLACK
  6
ByLayer
 62
  256
370
   -1
100
AcDbCircle
 10
92.075
 20
-30.5435
 40
0.1905
100
AcDbArc
 50
180
 51
0
  0
LINE
  5
5AA
100
AcDbEntity
  8
BLACK
  6
ByLayer
 62
  256
370
   -1
100
AcDbLine
 10
77.089
 20
-15.748
 11
92.075
 21
-15.748
  0
LINE
  5
5AB
100
AcDbEntity
  8
BLACK
  6
ByLayer
 62
  256
370
   -1
100
AcDbLine
 10
77.089
 20
-15.367
 11
92.075
 21
-15.367
  0
ARC
  5
5AC
100
AcDbEntity
  8
BLACK
  6
ByLayer
 62
  256
370
   -1
100
AcDbCircle
 10
92.075
 20
-15.5575
 40
0.1905
100
AcDbArc
 50
270
 51
90
  0
ARC
  5
5AD
100
AcDbEntity
  8
BLACK
  6
ByLayer
 62
  256
370
   -1
100
AcDbCircle
 10
77.089
 20
-15.5575
 40
0.1905
100
AcDbArc
 50
90
 51
270
  0
LINE
  5
5AE
100
AcDbEntity
  8
BLACK
  6
ByLayer
 62
  256
370
   -1
100
AcDbLine
 10
77.28
 20
-30.5435
 11
77.28
 21
-15.5575
  0
LINE
  5
5AF
100
AcDbEntity
  8
BLACK
  6
ByLayer
 62
  256
370
   -1
100
AcDbLine
 10
76.899
 20
-30.5435
 11
76.899
 21
-15.5575
  0
ARC
  5
5B0
100
AcDbEntity
  8
BLACK
  6
ByLayer
 62
  256
370
   -1
100
AcDbCircle
 10
77.089
 20
-15.5575
 40
0.1905
100
AcDbArc
 50
0
 51
180
  0
ARC
  5
5B1
100
AcDbEntity
  8
BLACK
  6
ByLayer
 62
  256
370
   -1
100
AcDbCircle
 10
77.089
 20
-30.5435
 40
0.1905
100
AcDbArc
 50
180
 51
0
  0
LINE
  5
5B2
100
AcDbEntity
  8
BLACK
  6
ByLayer
 62
  256
370
   -1
100
AcDbLine
 10
77.089
 20
-30.734
 11
92.075
 21
-30.734
  0
LINE
  5
5B3
100
AcDbEntity
  8
BLACK
  6
ByLayer
 62
  256
370
   -1
100
AcDbLine
 10
77.089
 20
-30.353
 11
92.075
 21
-30.353
  0
ARC
  5
5B4
100
AcDbEntity
  8
BLACK
  6
ByLayer
 62
  256
370
   -1
100
AcDbCircle
 10
92.075
 20
-30.5435
 40
0.1905
100
AcDbArc
 50
270
 51
90
  0
ARC
  5
5B5
100
AcDbEntity
  8
BLACK
  6
ByLayer
 62
  256
370
   -1
100
AcDbCircle
 10
77.089
 20
-30.5435
 40
0.1905
100
AcDbArc
 50
90
 51
270
  0
LINE
  5
5B6
100
AcDbEntity
  8
BLACK
  6
ByLayer
 62
  256
370
   -1
100
AcDbLine
 10
82.042
 20
-49.4035
 11
89.154
 21
-49.4035
  0
LINE
  5
5B7
100
AcDbEntity
  8
BLACK
  6
ByLayer
 62
  256
370
   -1
100
AcDbLine
 10
82.042
 20
-49.0225
 11
89.154
 21
-49.0225
  0
ARC
  5
5B8
100
AcDbEntity
  8
BLACK
  6
ByLayer
 62
  256
370
   -1
100
AcDbCircle
 10
89.154
 20
-49.2125
 40
0.1905
100
AcDbArc
 50
270
 51
90
  0
ARC
  5
5B9
100
AcDbEntity
  8
BLACK
  6
ByLayer
 62
  256
370
   -1
100
AcDbCircle
 10
82.042
 20
-49.2125
 40
0.1905
100
AcDbArc
 50
90
 51
270
  0
LINE
  5
5BA
100
AcDbEntity
  8
BLACK
  6
ByLayer
 62
  256
370
   -1
100
AcDbLine
 10
89.345
 20
-51.1175
 11
89.345
 21
-49.2125
  0
LINE
  5
5BB
100
AcDbEntity
  8
BLACK
  6
ByLayer
 62
  256
370
   -1
100
AcDbLine
 10
88.964
 20
-51.1175
 11
88.964
 21
-49.2125
  0
ARC
  5
5BC
100
AcDbEntity
  8
BLACK
  6
ByLayer
 62
  256
370
   -1
100
AcDbCircle
 10
89.154
 20
-49.2125
 40
0.1905
100
AcDbArc
 50
0
 51
180
  0
ARC
  5
5BD
100
AcDbEntity
  8
BLACK
  6
ByLayer
 62
  256
370
   -1
100
AcDbCircle
 10
89.154
 20
-51.1175
 40
0.1905
100
AcDbArc
 50
180
 51
0
  0
LINE
  5
5BE
100
AcDbEntity
  8
BLACK
  6
ByLayer
 62
  256
370
   -1
100
AcDbLine
 10
89.345
 20
-51.2445
 11
89.345
 21
-51.1175
  0
LINE
  5
5BF
100
AcDbEntity
  8
BLACK
  6
ByLayer
 62
  256
370
   -1
100
AcDbLine
 10
88.964
 20
-51.2445
 11
88.964
 21
-51.1175
  0
ARC
  5
5C0
100
AcDbEntity
  8
BLACK
  6
ByLayer
 62
  256
370
   -1
100
AcDbCircle
 10
89.154
 20
-51.1175
 40
0.1905
100
AcDbArc
 50
0
 51
180
  0
ARC
  5
5C1
100
AcDbEntity
  8
BLACK
  6
ByLayer
 62
  256
370
   -1
100
AcDbCircle
 10
89.154
 20
-51.2445
 40
0.1905
100
AcDbArc
 50
180
 51
0
  0
LINE
  5
5C2
100
AcDbEntity
  8
BLACK
  6
ByLayer
 62
  256
370
   -1
100
AcDbLine
 10
82.042
 20
-51.4355
 11
89.154
 21
-51.4355
  0
LINE
  5
5C3
100
AcDbEntity
  8
BLACK
  6
ByLayer
 62
  256
370
   -1
100
AcDbLine
 10
82.042
 20
-51.0545
 11
89.154
 21
-51.0545
  0
ARC
  5
5C4
100
AcDbEntity
  8
BLACK
  6
ByLayer
 62
  256
370
   -1
100
AcDbCircle
 10
89.154
 20
-51.2445
 40
0.1905
100
AcDbArc
 50
270
 51
90
  0
ARC
  5
5C5
100
AcDbEntity
  8
BLACK
  6
ByLayer
 62
  256
370
   -1
100
AcDbCircle
 10
82.042
 20
-51.2445
 40
0.1905
100
AcDbArc
 50
90
 51
270
  0
LINE
  5
5C6
100
AcDbEntity
  8
BLACK
  6
ByLayer
 62
  256
370
   -1
100
AcDbLine
 10
82.233
 20
-51.2445
 11
82.233
 21
-49.2125
  0
LINE
  5
5C7
100
AcDbEntity
  8
BLACK
  6
ByLayer
 62
  256
370
   -1
100
AcDbLine
 10
81.852
 20
-51.2445
 11
81.852
 21
-49.2125
  0
ARC
  5
5C8
100
AcDbEntity
  8
BLACK
  6
ByLayer
 62
  256
370
   -1
100
AcDbCircle
 10
82.042
 20
-49.2125
 40
0.1905
100
AcDbArc
 50
0
 51
180
  0
ARC
  5
5C9
100
AcDbEntity
  8
BLACK
  6
ByLayer
 62
  256
370
   -1
100
AcDbCircle
 10
82.042
 20
-51.2445
 40
0.1905
100
AcDbArc
 50
180
 51
0
  0
LINE
  5
5CA
100
AcDbEntity
  8
BLACK
  6
ByLayer
 62
  256
370
   -1
100
AcDbLine
 10
81.026
 20
-57.2775
 11
90.17
 21
-57.2775
  0
LINE
  5
5CB
100
AcDbEntity
  8
BLACK
  6
ByLayer
 62
  256
370
   -1
100
AcDbLine
 10
81.026
 20
-56.8965
 11
90.17
 21
-56.8965
  0
ARC
  5
5CC
100
AcDbEntity
  8
BLACK
  6
ByLayer
 62
  256
370
   -1
100
AcDbCircle
 10
90.17
 20
-57.0865
 40
0.1905
100
AcDbArc
 50
270
 51
90
  0
ARC
  5
5CD
100
AcDbEntity
  8
BLACK
  6
ByLayer
 62
  256
370
   -1
100
AcDbCircle
 10
81.026
 20
-57.0865
 40
0.1905
100
AcDbArc
 50
90
 51
270
  0
LINE
  5
5CE
100
AcDbEntity
  8
BLACK
  6
ByLayer
 62
  256
370
   -1
100
AcDbLine
 10
81.026
 20
-43.561
 11
90.17
 21
-43.561
  0
LINE
  5
5CF
100
AcDbEntity
  8
BLACK
  6
ByLayer
 62
  256
370
   -1
100
AcDbLine
 10
81.026
 20
-43.18
 11
90.17
 21
-43.18
  0
ARC
  5
5D0
100
AcDbEntity
  8
BLACK
  6
ByLayer
 62
  256
370
   -1
100
AcDbCircle
 10
90.17
 20
-43.3705
 40
0.1905
100
AcDbArc
 50
270
 51
90
  0
ARC
  5
5D1
100
AcDbEntity
  8
BLACK
  6
ByLayer
 62
  256
370
   -1
100
AcDbCircle
 10
81.026
 20
-43.3705
 40
0.1905
100
AcDbArc
 50
90
 51
270
  0
LINE
  5
5D2
100
AcDbEntity
  8
BLACK
  6
ByLayer
 62
  256
370
   -1
100
AcDbLine
 10
90.361
 20
-43.7515
 11
90.361
 21
-42.8625
  0
LINE
  5
5D3
100
AcDbEntity
  8
BLACK
  6
ByLayer
 62
  256
370
   -1
100
AcDbLine
 10
89.98
 20
-43.7515
 11
89.98
 21
-42.8625
  0
ARC
  5
5D4
100
AcDbEntity
  8
BLACK
  6
ByLayer
 62
  256
370
   -1
100
AcDbCircle
 10
90.17
 20
-42.8625
 40
0.1905
100
AcDbArc
 50
0
 51
180
  0
ARC
  5
5D5
100
AcDbEntity
  8
BLACK
  6
ByLayer
 62
  256
370
   -1
100
AcDbCircle
 10
90.17
 20
-43.7515
 40
0.1905
100
AcDbArc
 50
180
 51
0
  0
LINE
  5
5D6
100
AcDbEntity
  8
BLACK
  6
ByLayer
 62
  256
370
   -1
100
AcDbLine
 10
91.821
 20
-45.8475
 11
93.09099999999999
 21
-45.8475
  0
LINE
  5
5D7
100
AcDbEntity
  8
BLACK
  6
ByLayer
 62
  256
370
   -1
100
AcDbLine
 10
91.821
 20
-45.4665
 11
93.09099999999999
 21
-45.4665
  0
ARC
  5
5D8
100
AcDbEntity
  8
BLACK
  6
ByLayer
 62
  256
370
   -1
100
AcDbCircle
 10
93.09099999999999
 20
-45.6565
 40
0.1905
100
AcDbArc
 50
270
 51
90
  0
ARC
  5
5D9
100
AcDbEntity
  8
BLACK
  6
ByLayer
 62
  256
370
   -1
100
AcDbCircle
 10
91.821
 20
-45.6565
 40
0.1905
100
AcDbArc
 50
90
 51
270
  0
LINE
  5
5DA
100
AcDbEntity
  8
BLACK
  6
ByLayer
 62
  256
370
   -1
100
AcDbLine
 10
81.217
 20
-43.8785
 11
81.217
 21
-42.7355
  0
LINE
  5
5DB
100
AcDbEntity
  8
BLACK
  6
ByLayer
 62
  256
370
   -1
100
AcDbLine
 10
80.836
 20
-43.8785
 11
80.836
 21
-42.7355
  0
ARC
  5
5DC
100
AcDbEntity
  8
BLACK
  6
ByLayer
 62
  256
370
   -1
100
AcDbCircle
 10
81.026
 20
-42.7355
 40
0.1905
100
AcDbArc
 50
0
 51
180
  0
ARC
  5
5DD
100
AcDbEntity
  8
BLACK
  6
ByLayer
 62
  256
370
   -1
100
AcDbCircle
 10
81.026
 20
-43.8785
 40
0.1905
100
AcDbArc
 50
180
 51
0
  0
LINE
  5
5DE
100
AcDbEntity
  8
BLACK
  6
ByLayer
 62
  256
370
   -1
100
AcDbLine
 10
78.105
 20
-45.8475
 11
79.248
 21
-45.8475
  0
LINE
  5
5DF
100
AcDbEntity
  8
BLACK
  6
ByLayer
 62
  256
370
   -1
100
AcDbLine
 10
78.105
 20
-45.4665
 11
79.248
 21
-45.4665
  0
ARC
  5
5E0
100
AcDbEntity
  8
BLACK
  6
ByLayer
 62
  256
370
   -1
100
AcDbCircle
 10
79.248
 20
-45.6565
 40
0.1905
100
AcDbArc
 50
270
 51
90
  0
ARC
  5
5E1
100
AcDbEntity
  8
BLACK
  6
ByLayer
 62
  256
370
   -1
100
AcDbCircle
 10
78.105
 20
-45.6565
 40
0.1905
100
AcDbArc
 50
90
 51
270
  0
LINE
  5
5E2
100
AcDbEntity
  8
BLACK
  6
ByLayer
 62
  256
370
   -1
100
AcDbLine
 10
78.105
 20
-54.9915
 11
79.248
 21
-54.9915
  0
LINE
  5
5E3
100
AcDbEntity
  8
BLACK
  6
ByLayer
 62
  256
370
   -1
100
AcDbLine
 10
78.105
 20
-54.6105
 11
79.248
 21
-54.6105
  0
ARC
  5
5E4
100
AcDbEntity
  8
BLACK
  6
ByLayer
 62
  256
370
   -1
100
AcDbCircle
 10
79.248
 20
-54.8005
 40
0.1905
100
AcDbArc
 50
270
 51
90
  0
ARC
  5
5E5
100
AcDbEntity
  8
BLACK
  6
ByLayer
 62
  256
370
   -1
100
AcDbCircle
 10
78.105
 20
-54.8005
 40
0.1905
100
AcDbArc
 50
90
 51
270
  0
LINE
  5
5E6
100
AcDbEntity
  8
BLACK
  6
ByLayer
 62
  256
370
   -1
100
AcDbLine
 10
81.217
 20
-57.7215
 11
81.217
 21
-56.5785
  0
LINE
  5
5E7
100
AcDbEntity
  8
BLACK
  6
ByLayer
 62
  256
370
   -1
100
AcDbLine
 10
80.836
 20
-57.7215
 11
80.836
 21
-56.5785
  0
ARC
  5
5E8
100
AcDbEntity
  8
BLACK
  6
ByLayer
 62
  256
370
   -1
100
AcDbCircle
 10
81.026
 20
-56.5785
 40
0.1905
100
AcDbArc
 50
0
 51
180
  0
ARC
  5
5E9
100
AcDbEntity
  8
BLACK
  6
ByLayer
 62
  256
370
   -1
100
AcDbCircle
 10
81.026
 20
-57.7215
 40
0.1905
100
AcDbArc
 50
180
 51
0
  0
LINE
  5
5EA
100
AcDbEntity
  8
BLACK
  6
ByLayer
 62
  256
370
   -1
100
AcDbLine
 10
91.94799999999999
 20
-54.9915
 11
93.09099999999999
 21
-54.9915
  0
LINE
  5
5EB
100
AcDbEntity
  8
BLACK
  6
ByLayer
 62
  256
370
   -1
100
AcDbLine
 10
91.94799999999999
 20
-54.6105
 11
93.09099999999999
 21
-54.6105
  0
ARC
  5
5EC
100
AcDbEntity
  8
BLACK
  6
ByLayer
 62
  256
370
   -1
100
AcDbCircle
 10
93.09099999999999
 20
-54.8005
 40
0.1905
100
AcDbArc
 50
270
 51
90
  0
ARC
  5
5ED
100
AcDbEntity
  8
BLACK
  6
ByLayer
 62
  256
370
   -1
100
AcDbCircle
 10
91.94799999999999
 20
-54.8005
 40
0.1905
100
AcDbArc
 50
90
 51
270
  0
LINE
  5
5EE
100
AcDbEntity
  8
BLACK
  6
ByLayer
 62
  256
370
   -1
100
AcDbLine
 10
90.361
 20
-57.7215
 11
90.361
 21
-56.5785
  0
LINE
  5
5EF
100
AcDbEntity
  8
BLACK
  6
ByLayer
 62
  256
370
   -1
100
AcDbLine
 10
89.98
 20
-57.7215
 11
89.98
 21
-56.5785
  0
ARC
  5
5F0
100
AcDbEntity
  8
BLACK
  6
ByLayer
 62
  256
370
   -1
100
AcDbCircle
 10
90.17
 20
-56.5785
 40
0.1905
100
AcDbArc
 50
0
 51
180
  0
ARC
  5
5F1
100
AcDbEntity
  8
BLACK
  6
ByLayer
 62
  256
370
   -1
100
AcDbCircle
 10
90.17
 20
-57.7215
 40
0.1905
100
AcDbArc
 50
180
 51
0
  0
ARC
  5
5F2
100
AcDbEntity
  8
BLACK
  6
ByLayer
 62
  256
370
   -1
100
AcDbCircle
 10
91.94799999999999
 20
-56.5785
 40
1.778
100
AcDbArc
 50
90
 51
180
  0
ARC
  5
5F3
100
AcDbEntity
  8
BLACK
  6
ByLayer
 62
  256
370
   -1
100
AcDbCircle
 10
79.248
 20
-56.5785
 40
1.778
100
AcDbArc
 50
0
 51
90
  0
ARC
  5
5F4
100
AcDbEntity
  8
BLACK
  6
ByLayer
 62
  256
370
   -1
100
AcDbCircle
 10
91.94799999999999
 20
-43.8785
 40
1.78253
100
AcDbArc
 50
175.9
 51
265.9
  0
ARC
  5
5F5
100
AcDbEntity
  8
BLACK
  6
ByLayer
 62
  256
370
   -1
100
AcDbCircle
 10
79.248
 20
-43.8785
 40
1.778
100
AcDbArc
 50
270
 51
0
  0
LINE
  5
5F6
100
AcDbEntity
  8
BLACK
  6
ByLayer
 62
  256
370
   -1
100
AcDbLine
 10
93.282
 20
-57.7215
 11
93.282
 21
-42.7355
  0
LINE
  5
5F7
100
AcDbEntity
  8
BLACK
  6
ByLayer
 62
  256
370
   -1
100
AcDbLine
 10
92.901
 20
-57.7215
 11
92.901
 21
-42.7355
  0
ARC
  5
5F8
100
AcDbEntity
  8
BLACK
  6
ByLayer
 62
  256
370
   -1
100
AcDbCircle
 10
93.09099999999999
 20
-42.7355
 40
0.1905
100
AcDbArc
 50
0
 51
180
  0
ARC
  5
5F9
100
AcDbEntity
  8
BLACK
  6
ByLayer
 62
  256
370
   -1
100
AcDbCircle
 10
93.09099999999999
 20
-57.7215
 40
0.1905
100
AcDbArc
 50
180
 51
0
  0
LINE
  5
5FA
100
AcDbEntity
  8
BLACK
  6
ByLayer
 62
  256
370
   -1
100
AcDbLine
 10
78.105
 20
-42.926
 11
93.09099999999999
 21
-42.926
  0
LINE
  5
5FB
100
AcDbEntity
  8
BLACK
  6
ByLayer
 62
  256
370
   -1
100
AcDbLine
 10
78.105
 20
-42.545
 11
93.09099999999999
 21
-42.545
  0
ARC
  5
5FC
100
AcDbEntity
  8
BLACK
  6
ByLayer
 62
  256
370
   -1
100
AcDbCircle
 10
93.09099999999999
 20
-42.7355
 40
0.1905
100
AcDbArc
 50
270
 51
90
  0
ARC
  5
5FD
100
AcDbEntity
  8
BLACK
  6
ByLayer
 62
  256
370
   -1
100
AcDbCircle
 10
78.105
 20
-42.7355
 40
0.1905
100
AcDbArc
 50
90
 51
270
  0
LINE
  5
5FE
100
AcDbEntity
  8
BLACK
  6
ByLayer
 62
  256
370
   -1
100
AcDbLine
 10
78.29600000000001
 20
-57.7215
 11
78.29600000000001
 21
-42.7355
  0
LINE
  5
5FF
100
AcDbEntity
  8
BLACK
  6
ByLayer
 62
  256
370
   -1
100
AcDbLine
 10
77.91500000000001
 20
-57.7215
 11
77.91500000000001
 21
-42.7355
  0
ARC
  5
600
100
AcDbEntity
  8
BLACK
  6
ByLayer
 62
  256
370
   -1
100
AcDbCircle
 10
78.105
 20
-42.7355
 40
0.1905
100
AcDbArc
 50
0
 51
180
  0
ARC
  5
601
100
AcDbEntity
  8
BLACK
  6
ByLayer
 62
  256
370
   -1
100
AcDbCircle
 10
78.105
 20
-57.7215
 40
0.1905
100
AcDbArc
 50
180
 51
0
  0
LINE
  5
602
100
AcDbEntity
  8
BLACK
  6
ByLayer
 62
  256
370
   -1
100
AcDbLine
 10
78.105
 20
-57.9125
 11
93.09099999999999
 21
-57.9125
  0
LINE
  5
603
100
AcDbEntity
  8
BLACK
  6
ByLayer
 62
  256
370
   -1
100
AcDbLine
 10
78.105
 20
-57.5315
 11
93.09099999999999
 21
-57.5315
  0
ARC
  5
604
100
AcDbEntity
  8
BLACK
  6
ByLayer
 62
  256
370
   -1
100
AcDbCircle
 10
93.09099999999999
 20
-57.7215
 40
0.1905
100
AcDbArc
 50
270
 51
90
  0
ARC
  5
605
100
AcDbEntity
  8
BLACK
  6
ByLayer
 62
  256
370
   -1
100
AcDbCircle
 10
78.105
 20
-57.7215
 40
0.1905
100
AcDbArc
 50
90
 51
270
  0
LINE
  5
606
100
AcDbEntity
  8
BLACK
  6
ByLayer
 62
  256
370
   -1
100
AcDbLine
 10
82.042
 20
-67.8185
 11
89.154
 21
-67.8185
  0
LINE
  5
607
100
AcDbEntity
  8
BLACK
  6
ByLayer
 62
  256
370
   -1
100
AcDbLine
 10
82.042
 20
-67.4375
 11
89.154
 21
-67.4375
  0
ARC
  5
608
100
AcDbEntity
  8
BLACK
  6
ByLayer
 62
  256
370
   -1
100
AcDbCircle
 10
89.154
 20
-67.6275
 40
0.1905
100
AcDbArc
 50
270
 51
90
  0
ARC
  5
609
100
AcDbEntity
  8
BLACK
  6
ByLayer
 62
  256
370
   -1
100
AcDbCircle
 10
82.042
 20
-67.6275
 40
0.1905
100
AcDbArc
 50
90
 51
270
  0
LINE
  5
60A
100
AcDbEntity
  8
BLACK
  6
ByLayer
 62
  256
370
   -1
100
AcDbLine
 10
89.345
 20
-69.5325
 11
89.345
 21
-67.6275
  0
LINE
  5
60B
100
AcDbEntity
  8
BLACK
  6
ByLayer
 62
  256
370
   -1
100
AcDbLine
 10
88.964
 20
-69.5325
 11
88.964
 21
-67.6275
  0
ARC
  5
60C
100
AcDbEntity
  8
BLACK
  6
ByLayer
 62
  256
370
   -1
100
AcDbCircle
 10
89.154
 20
-67.6275
 40
0.1905
100
AcDbArc
 50
0
 51
180
  0
ARC
  5
60D
100
AcDbEntity
  8
BLACK
  6
ByLayer
 62
  256
370
   -1
100
AcDbCircle
 10
89.154
 20
-69.5325
 40
0.1905
100
AcDbArc
 50
180
 51
0
  0
LINE
  5
60E
100
AcDbEntity
  8
BLACK
  6
ByLayer
 62
  256
370
   -1
100
AcDbLine
 10
89.345
 20
-69.65949999999999
 11
89.345
 21
-69.5325
  0
LINE
  5
60F
100
AcDbEntity
  8
BLACK
  6
ByLayer
 62
  256
370
   -1
100
AcDbLine
 10
88.964
 20
-69.65949999999999
 11
88.964
 21
-69.5325
  0
ARC
  5
610
100
AcDbEntity
  8
BLACK
  6
ByLayer
 62
  256
370
   -1
100
AcDbCircle
 10
89.154
 20
-69.5325
 40
0.1905
100
AcDbArc
 50
0
 51
180
  0
ARC
  5
611
100
AcDbEntity
  8
BLACK
  6
ByLayer
 62
  256
370
   -1
100
AcDbCircle
 10
89.154
 20
-69.65949999999999
 40
0.1905
100
AcDbArc
 50
180
 51
0
  0
LINE
  5
612
100
AcDbEntity
  8
BLACK
  6
ByLayer
 62
  256
370
   -1
100
AcDbLine
 10
82.042
 20
-69.8505
 11
89.154
 21
-69.8505
  0
LINE
  5
613
100
AcDbEntity
  8
BLACK
  6
ByLayer
 62
  256
370
   -1
100
AcDbLine
 10
82.042
 20
-69.4695
 11
89.154
 21
-69.4695
  0
ARC
  5
614
100
AcDbEntity
  8
BLACK
  6
ByLayer
 62
  256
370
   -1
100
AcDbCircle
 10
89.154
 20
-69.65949999999999
 40
0.1905
100
AcDbArc
 50
270
 51
90
  0
ARC
  5
615
100
AcDbEntity
  8
BLACK
  6
ByLayer
 62
  256
370
   -1
100
AcDbCircle
 10
82.042
 20
-69.65949999999999
 40
0.1905
100
AcDbArc
 50
90
 51
270
  0
LINE
  5
616
100
AcDbEntity
  8
BLACK
  6
ByLayer
 62
  256
370
   -1
100
AcDbLine
 10
82.233
 20
-69.65949999999999
 11
82.233
 21
-67.6275
  0
LINE
  5
617
100
AcDbEntity
  8
BLACK
  6
ByLayer
 62
  256
370
   -1
100
AcDbLine
 10
81.852
 20
-69.65949999999999
 11
81.852
 21
-67.6275
  0
ARC
  5
618
100
AcDbEntity
  8
BLACK
  6
ByLayer
 62
  256
370
   -1
100
AcDbCircle
 10
82.042
 20
-67.6275
 40
0.1905
100
AcDbArc
 50
0
 51
180
  0
ARC
  5
619
100
AcDbEntity
  8
BLACK
  6
ByLayer
 62
  256
370
   -1
100
AcDbCircle
 10
82.042
 20
-69.65949999999999
 40
0.1905
100
AcDbArc
 50
180
 51
0
  0
LINE
  5
61A
100
AcDbEntity
  8
BLACK
  6
ByLayer
 62
  256
370
   -1
100
AcDbLine
 10
81.026
 20
-75.6925
 11
90.17
 21
-75.6925
  0
LINE
  5
61B
100
AcDbEntity
  8
BLACK
  6
ByLayer
 62
  256
370
   -1
100
AcDbLine
 10
81.026
 20
-75.3115
 11
90.17
 21
-75.3115
  0
ARC
  5
61C
100
AcDbEntity
  8
BLACK
  6
ByLayer
 62
  256
370
   -1
100
AcDbCircle
 10
90.17
 20
-75.50149999999999
 40
0.1905
100
AcDbArc
 50
270
 51
90
  0
ARC
  5
61D
100
AcDbEntity
  8
BLACK
  6
ByLayer
 62
  256
370
   -1
100
AcDbCircle
 10
81.026
 20
-75.50149999999999
 40
0.1905
100
AcDbArc
 50
90
 51
270
  0
LINE
  5
61E
100
AcDbEntity
  8
BLACK
  6
ByLayer
 62
  256
370
   -1
100
AcDbLine
 10
81.026
 20
-61.9765
 11
90.17
 21
-61.9765
  0
LINE
  5
61F
100
AcDbEntity
  8
BLACK
  6
ByLayer
 62
  256
370
   -1
100
AcDbLine
 10
81.026
 20
-61.5955
 11
90.17
 21
-61.5955
  0
ARC
  5
620
100
AcDbEntity
  8
BLACK
  6
ByLayer
 62
  256
370
   -1
100
AcDbCircle
 10
90.17
 20
-61.7855
 40
0.1905
100
AcDbArc
 50
270
 51
90
  0
ARC
  5
621
100
AcDbEntity
  8
BLACK
  6
ByLayer
 62
  256
370
   -1
100
AcDbCircle
 10
81.026
 20
-61.7855
 40
0.1905
100
AcDbArc
 50
90
 51
270
  0
LINE
  5
622
100
AcDbEntity
  8
BLACK
  6
ByLayer
 62
  256
370
   -1
100
AcDbLine
 10
90.361
 20
-62.1665
 11
90.361
 21
-61.2775
  0
LINE
  5
623
100
AcDbEntity
  8
BLACK
  6
ByLayer
 62
  256
370
   -1
100
AcDbLine
 10
89.98
 20
-62.1665
 11
89.98
 21
-61.2775
  0
ARC
  5
624
100
AcDbEntity
  8
BLACK
  6
ByLayer
 62
  256
370
   -1
100
AcDbCircle
 10
90.17
 20
-61.2775
 40
0.1905
100
AcDbArc
 50
0
 51
180
  0
ARC
  5
625
100
AcDbEntity
  8
BLACK
  6
ByLayer
 62
  256
370
   -1
100
AcDbCircle
 10
90.17
 20
-62.1665
 40
0.1905
100
AcDbArc
 50
180
 51
0
  0
LINE
  5
626
100
AcDbEntity
  8
BLACK
  6
ByLayer
 62
  256
370
   -1
100
AcDbLine
 10
91.821
 20
-64.2625
 11
93.09099999999999
 21
-64.2625
  0
LINE
  5
627
100
AcDbEntity
  8
BLACK
  6
ByLayer
 62
  256
370
   -1
100
AcDbLine
 10
91.821
 20
-63.8815
 11
93.09099999999999
 21
-63.8815
  0
ARC
  5
628
100
AcDbEntity
  8
BLACK
  6
ByLayer
 62
  256
370
   -1
100
AcDbCircle
 10
93.09099999999999
 20
-64.0715
 40
0.1905
100
AcDbArc
 50
270
 51
90
  0
ARC
  5
629
100
AcDbEntity
  8
BLACK
  6
ByLayer
 62
  256
370
   -1
100
AcDbCircle
 10
91.821
 20
-64.0715
 40
0.1905
100
AcDbArc
 50
90
 51
270
  0
LINE
  5
62A
100
AcDbEntity
  8
BLACK
  6
ByLayer
 62
  256
370
   -1
100
AcDbLine
 10
81.217
 20
-62.2935
 11
81.217
 21
-61.1505
  0
LINE
  5
62B
100
AcDbEntity
  8
BLACK
  6
ByLayer
 62
  256
370
   -1
100
AcDbLine
 10
80.836
 20
-62.2935
 11
80.836
 21
-61.1505
  0
ARC
  5
62C
100
AcDbEntity
  8
BLACK
  6
ByLayer
 62
  256
370
   -1
100
AcDbCircle
 10
81.026
 20
-61.1505
 40
0.1905
100
AcDbArc
 50
0
 51
180
  0
ARC
  5
62D
100
AcDbEntity
  8
BLACK
  6
ByLayer
 62
  256
370
   -1
100
AcDbCircle
 10
81.026
 20
-62.2935
 40
0.1905
100
AcDbArc
 50
180
 51
0
  0
LINE
  5
62E
100
AcDbEntity
  8
BLACK
  6
ByLayer
 62
  256
370
   -1
100
AcDbLine
 10
78.105
 20
-64.2625
 11
79.248
 21
-64.2625
  0
LINE
  5
62F
100
AcDbEntity
  8
BLACK
  6
ByLayer
 62
  256
370
   -1
100
AcDbLine
 10
78.105
 20
-63.8815
 11
79.248
 21
-63.8815
  0
ARC
  5
630
100
AcDbEntity
  8
BLACK
  6
ByLayer
 62
  256
370
   -1
100
AcDbCircle
 10
79.248
 20
-64.0715
 40
0.1905
100
AcDbArc
 50
270
 51
90
  0
ARC
  5
631
100
AcDbEntity
  8
BLACK
  6
ByLayer
 62
  256
370
   -1
100
AcDbCircle
 10
78.105
 20
-64.0715
 40
0.1905
100
AcDbArc
 50
90
 51
270
  0
LINE
  5
632
100
AcDbEntity
  8
BLACK
  6
ByLayer
 62
  256
370
   -1
100
AcDbLine
 10
78.105
 20
-73.40649999999999
 11
79.248
 21
-73.40649999999999
  0
LINE
  5
633
100
AcDbEntity
  8
BLACK
  6
ByLayer
 62
  256
370
   -1
100
AcDbLine
 10
78.105
 20
-73.02549999999999
 11
79.248
 21
-73.02549999999999
  0
ARC
  5
634
100
AcDbEntity
  8
BLACK
  6
ByLayer
 62
  256
370
   -1
100
AcDbCircle
 10
79.248
 20
-73.21550000000001
 40
0.1905
100
AcDbArc
 50
270
 51
90
  0
ARC
  5
635
100
AcDbEntity
  8
BLACK
  6
ByLayer
 62
  256
370
   -1
100
AcDbCircle
 10
78.105
 20
-73.21550000000001
 40
0.1905
100
AcDbArc
 50
90
 51
270
  0
LINE
  5
636
100
AcDbEntity
  8
BLACK
  6
ByLayer
 62
  256
370
   -1
100
AcDbLine
 10
81.217
 20
-76.1365
 11
81.217
 21
-74.9935
  0
LINE
  5
637
100
AcDbEntity
  8
BLACK
  6
ByLayer
 62
  256
370
   -1
100
AcDbLine
 10
80.836
 20
-76.1365
 11
80.836
 21
-74.9935
  0
ARC
  5
638
100
AcDbEntity
  8
BLACK
  6
ByLayer
 62
  256
370
   -1
100
AcDbCircle
 10
81.026
 20
-74.9935
 40
0.1905
100
AcDbArc
 50
0
 51
180
  0
ARC
  5
639
100
AcDbEntity
  8
BLACK
  6
ByLayer
 62
  256
370
   -1
100
AcDbCircle
 10
81.026
 20
-76.1365
 40
0.1905
100
AcDbArc
 50
180
 51
0
  0
LINE
  5
63A
100
AcDbEntity
  8
BLACK
  6
ByLayer
 62
  256
370
   -1
100
AcDbLine
 10
91.94799999999999
 20
-73.40649999999999
 11
93.09099999999999
 21
-73.40649999999999
  0
LINE
  5
63B
100
AcDbEntity
  8
BLACK
  6
ByLayer
 62
  256
370
   -1
100
AcDbLine
 10
91.94799999999999
 20
-73.02549999999999
 11
93.09099999999999
 21
-73.02549999999999
  0
ARC
  5
63C
100
AcDbEntity
  8
BLACK
  6
ByLayer
 62
  256
370
   -1
100
AcDbCircle
 10
93.09099999999999
 20
-73.21550000000001
 40
0.1905
100
AcDbArc
 50
270
 51
90
  0
ARC
  5
63D
100
AcDbEntity
  8
BLACK
  6
ByLayer
 62
  256
370
   -1
100
AcDbCircle
 10
91.94799999999999
 20
-73.21550000000001
 40
0.1905
100
AcDbArc
 50
90
 51
270
  0
LINE
  5
63E
100
AcDbEntity
  8
BLACK
  6
ByLayer
 62
  256
370
   -1
100
AcDbLine
 10
90.361
 20
-76.1365
 11
90.361
 21
-74.9935
  0
LINE
  5
63F
100
AcDbEntity
  8
BLACK
  6
ByLayer
 62
  256
370
   -1
100
AcDbLine
 10
89.98
 20
-76.1365
 11
89.98
 21
-74.9935
  0
ARC
  5
640
100
AcDbEntity
  8
BLACK
  6
ByLayer
 62
  256
370
   -1
100
AcDbCircle
 10
90.17
 20
-74.9935
 40
0.1905
100
AcDbArc
 50
0
 51
180
  0
ARC
  5
641
100
AcDbEntity
  8
BLACK
  6
ByLayer
 62
  256
370
   -1
100
AcDbCircle
 10
90.17
 20
-76.1365
 40
0.1905
100
AcDbArc
 50
180
 51
0
  0
ARC
  5
642
100
AcDbEntity
  8
BLACK
  6
ByLayer
 62
  256
370
   -1
100
AcDbCircle
 10
91.94799999999999
 20
-74.9935
 40
1.778
100
AcDbArc
 50
90
 51
180
  0
ARC
  5
643
100
AcDbEntity
  8
BLACK
  6
ByLayer
 62
  256
370
   -1
100
AcDbCircle
 10
79.248
 20
-74.9935
 40
1.778
100
AcDbArc
 50
0
 51
90
  0
ARC
  5
644
100
AcDbEntity
  8
BLACK
  6
ByLayer
 62
  256
370
   -1
100
AcDbCircle
 10
91.94799999999999
 20
-62.2935
 40
1.78253
100
AcDbArc
 50
175.9
 51
265.9
  0
ARC
  5
645
100
AcDbEntity
  8
BLACK
  6
ByLayer
 62
  256
370
   -1
100
AcDbCircle
 10
79.248
 20
-62.2935
 40
1.778
100
AcDbArc
 50
270
 51
0
  0
LINE
  5
646
100
AcDbEntity
  8
BLACK
  6
ByLayer
 62
  256
370
   -1
100
AcDbLine
 10
93.282
 20
-76.1365
 11
93.282
 21
-61.1505
  0
LINE
  5
647
100
AcDbEntity
  8
BLACK
  6
ByLayer
 62
  256
370
   -1
100
AcDbLine
 10
92.901
 20
-76.1365
 11
92.901
 21
-61.1505
  0
ARC
  5
648
100
AcDbEntity
  8
BLACK
  6
ByLayer
 62
  256
370
   -1
100
AcDbCircle
 10
93.09099999999999
 20
-61.1505
 40
0.1905
100
AcDbArc
 50
0
 51
180
  0
ARC
  5
649
100
AcDbEntity
  8
BLACK
  6
ByLayer
 62
  256
370
   -1
100
AcDbCircle
 10
93.09099999999999
 20
-76.1365
 40
0.1905
100
AcDbArc
 50
180
 51
0
  0
LINE
  5
64A
100
AcDbEntity
  8
BLACK
  6
ByLayer
 62
  256
370
   -1
100
AcDbLine
 10
78.105
 20
-61.3415
 11
93.09099999999999
 21
-61.3415
  0
LINE
  5
64B
100
AcDbEntity
  8
BLACK
  6
ByLayer
 62
  256
370
   -1
100
AcDbLine
 10
78.105
 20
-60.9605
 11
93.09099999999999
 21
-60.9605
  0
ARC
  5
64C
100
AcDbEntity
  8
BLACK
  6
ByLayer
 62
  256
370
   -1
100
AcDbCircle
 10
93.09099999999999
 20
-61.1505
 40
0.1905
100
AcDbArc
 50
270
 51
90
  0
ARC
  5
64D
100
AcDbEntity
  8
BLACK
  6
ByLayer
 62
  256
370
   -1
100
AcDbCircle
 10
78.105
 20
-61.1505
 40
0.1905
100
AcDbArc
 50
90
 51
270
  0
LINE
  5
64E
100
AcDbEntity
  8
BLACK
  6
ByLayer
 62
  256
370
   -1
100
AcDbLine
 10
78.29600000000001
 20
-76.1365
 11
78.29600000000001
 21
-61.1505
  0
LINE
  5
64F
100
AcDbEntity
  8
BLACK
  6
ByLayer
 62
  256
370
   -1
100
AcDbLine
 10
77.91500000000001
 20
-76.1365
 11
77.91500000000001
 21
-61.1505
  0
ARC
  5
650
100
AcDbEntity
  8
BLACK
  6
ByLayer
 62
  256
370
   -1
100
AcDbCircle
 10
78.105
 20
-61.1505
 40
0.1905
100
AcDbArc
 50
0
 51
180
  0
ARC
  5
651
100
AcDbEntity
  8
BLACK
  6
ByLayer
 62
  256
370
   -1
100
AcDbCircle
 10
78.105
 20
-76.1365
 40
0.1905
100
AcDbArc
 50
180
 51
0
  0
LINE
  5
652
100
AcDbEntity
  8
BLACK
  6
ByLayer
 62
  256
370
   -1
100
AcDbLine
 10
78.105
 20
-76.3275
 11
93.09099999999999
 21
-76.3275
  0
LINE
  5
653
100
AcDbEntity
  8
BLACK
  6
ByLayer
 62
  256
370
   -1
100
AcDbLine
 10
78.105
 20
-75.9465
 11
93.09099999999999
 21
-75.9465
  0
ARC
  5
654
100
AcDbEntity
  8
BLACK
  6
ByLayer
 62
  256
370
   -1
100
AcDbCircle
 10
93.09099999999999
 20
-76.1365
 40
0.1905
100
AcDbArc
 50
270
 51
90
  0
ARC
  5
655
100
AcDbEntity
  8
BLACK
  6
ByLayer
 62
  256
370
   -1
100
AcDbCircle
 10
78.105
 20
-76.1365
 40
0.1905
100
AcDbArc
 50
90
 51
270
  0
LINE
  5
656
100
AcDbEntity
  8
BLACK
  6
ByLayer
 62
  256
370
   -1
100
AcDbLine
 10
82.042
 20
-86.3605
 11
89.154
 21
-86.3605
  0
LINE
  5
657
100
AcDbEntity
  8
BLACK
  6
ByLayer
 62
  256
370
   -1
100
AcDbLine
 10
82.042
 20
-85.9795
 11
89.154
 21
-85.9795
  0
ARC
  5
658
100
AcDbEntity
  8
BLACK
  6
ByLayer
 62
  256
370
   -1
100
AcDbCircle
 10
89.154
 20
-86.1695
 40
0.1905
100
AcDbArc
 50
270
 51
90
  0
ARC
  5
659
100
AcDbEntity
  8
BLACK
  6
ByLayer
 62
  256
370
   -1
100
AcDbCircle
 10
82.042
 20
-86.1695
 40
0.1905
100
AcDbArc
 50
90
 51
270
  0
LINE
  5
65A
100
AcDbEntity
  8
BLACK
  6
ByLayer
 62
  256
370
   -1
100
AcDbLine
 10
89.345
 20
-88.0745
 11
89.345
 21
-86.1695
  0
LINE
  5
65B
100
AcDbEntity
  8
BLACK
  6
ByLayer
 62
  256
370
   -1
100
AcDbLine
 10
88.964
 20
-88.0745
 11
88.964
 21
-86.1695
  0
ARC
  5
65C
100
AcDbEntity
  8
BLACK
  6
ByLayer
 62
  256
370
   -1
100
AcDbCircle
 10
89.154
 20
-86.1695
 40
0.1905
100
AcDbArc
 50
0
 51
180
  0
ARC
  5
65D
100
AcDbEntity
  8
BLACK
  6
ByLayer
 62
  256
370
   -1
100
AcDbCircle
 10
89.154
 20
-88.0745
 40
0.1905
100
AcDbArc
 50
180
 51
0
  0
LINE
  5
65E
100
AcDbEntity
  8
BLACK
  6
ByLayer
 62
  256
370
   -1
100
AcDbLine
 10
89.345
 20
-88.2015
 11
89.345
 21
-88.0745
  0
LINE
  5
65F
100
AcDbEntity
  8
BLACK
  6
ByLayer
 62
  256
370
   -1
100
AcDbLine
 10
88.964
 20
-88.2015
 11
88.964
 21
-88.0745
  0
ARC
  5
660
100
AcDbEntity
  8
BLACK
  6
ByLayer
 62
  256
370
   -1
100
AcDbCircle
 10
89.154
 20
-88.0745
 40
0.1905
100
AcDbArc
 50
0
 51
180
  0
ARC
  5
661
100
AcDbEntity
  8
BLACK
  6
ByLayer
 62
  256
370
   -1
100
AcDbCircle
 10
89.154
 20
-88.2015
 40
0.1905
100
AcDbArc
 50
180
 51
0
  0
LINE
  5
662
100
AcDbEntity
  8
BLACK
  6
ByLayer
 62
  256
370
   -1
100
AcDbLine
 10
82.042
 20
-88.3925
 11
89.154
 21
-88.3925
  0
LINE
  5
663
100
AcDbEntity
  8
BLACK
  6
ByLayer
 62
  256
370
   -1
100
AcDbLine
 10
82.042
 20
-88.0115
 11
89.154
 21
-88.0115
  0
ARC
  5
664
100
AcDbEntity
  8
BLACK
  6
ByLayer
 62
  256
370
   -1
100
AcDbCircle
 10
89.154
 20
-88.2015
 40
0.1905
100
AcDbArc
 50
270
 51
90
  0
ARC
  5
665
100
AcDbEntity
  8
BLACK
  6
ByLayer
 62
  256
370
   -1
100
AcDbCircle
 10
82.042
 20
-88.2015
 40
0.1905
100
AcDbArc
 50
90
 51
270
  0
LINE
  5
666
100
AcDbEntity
  8
BLACK
  6
ByLayer
 62
  256
370
   -1
100
AcDbLine
 10
82.233
 20
-88.2015
 11
82.233
 21
-86.1695
  0
LINE
  5
667
100
AcDbEntity
  8
BLACK
  6
ByLayer
 62
  256
370
   -1
100
AcDbLine
 10
81.852
 20
-88.2015
 11
81.852
 21
-86.1695
  0
ARC
  5
668
100
AcDbEntity
  8
BLACK
  6
ByLayer
 62
  256
370
   -1
100
AcDbCircle
 10
82.042
 20
-86.1695
 40
0.1905
100
AcDbArc
 50
0
 51
180
  0
ARC
  5
669
100
AcDbEntity
  8
BLACK
  6
ByLayer
 62
  256
370
   -1
100
AcDbCircle
 10
82.042
 20
-88.2015
 40
0.1905
100
AcDbArc
 50
180
 51
0
  0
LINE
  5
66A
100
AcDbEntity
  8
BLACK
  6
ByLayer
 62
  256
370
   -1
100
AcDbLine
 10
81.026
 20
-94.2345
 11
90.17
 21
-94.2345
  0
LINE
  5
66B
100
AcDbEntity
  8
BLACK
  6
ByLayer
 62
  256
370
   -1
100
AcDbLine
 10
81.026
 20
-93.8535
 11
90.17
 21
-93.8535
  0
ARC
  5
66C
100
AcDbEntity
  8
BLACK
  6
ByLayer
 62
  256
370
   -1
100
AcDbCircle
 10
90.17
 20
-94.04349999999999
 40
0.1905
100
AcDbArc
 50
270
 51
90
  0
ARC
  5
66D
100
AcDbEntity
  8
BLACK
  6
ByLayer
 62
  256
370
   -1
100
AcDbCircle
 10
81.026
 20
-94.04349999999999
 40
0.1905
100
AcDbArc
 50
90
 51
270
  0
LINE
  5
66E
100
AcDbEntity
  8
BLACK
  6
ByLayer
 62
  256
370
   -1
100
AcDbLine
 10
81.026
 20
-80.5185
 11
90.17
 21
-80.5185
  0
LINE
  5
66F
100
AcDbEntity
  8
BLACK
  6
ByLayer
 62
  256
370
   -1
100
AcDbLine
 10
81.026
 20
-80.1375
 11
90.17
 21
-80.1375
  0
ARC
  5
670
100
AcDbEntity
  8
BLACK
  6
ByLayer
 62
  256
370
   -1
100
AcDbCircle
 10
90.17
 20
-80.3275
 40
0.1905
100
AcDbArc
 50
270
 51
90
  0
ARC
  5
671
100
AcDbEntity
  8
BLACK
  6
ByLayer
 62
  256
370
   -1
100
AcDbCircle
 10
81.026
 20
-80.3275
 40
0.1905
100
AcDbArc
 50
90
 51
270
  0
LINE
  5
672
100
AcDbEntity
  8
BLACK
  6
ByLayer
 62
  256
370
   -1
100
AcDbLine
 10
90.361
 20
-80.7085
 11
90.361
 21
-79.81950000000001
  0
LINE
  5
673
100
AcDbEntity
  8
BLACK
  6
ByLayer
 62
  256
370
   -1
100
AcDbLine
 10
89.98
 20
-80.7085
 11
89.98
 21
-79.81950000000001
  0
ARC
  5
674
100
AcDbEntity
  8
BLACK
  6
ByLayer
 62
  256
370
   -1
100
AcDbCircle
 10
90.17
 20
-79.81950000000001
 40
0.1905
100
AcDbArc
 50
0
 51
180
  0
ARC
  5
675
100
AcDbEntity
  8
BLACK
  6
ByLayer
 62
  256
370
   -1
100
AcDbCircle
 10
90.17
 20
-80.7085
 40
0.1905
100
AcDbArc
 50
180
 51
0
  0
LINE
  5
676
100
AcDbEntity
  8
BLACK
  6
ByLayer
 62
  256
370
   -1
100
AcDbLine
 10
91.821
 20
-82.8045
 11
93.09099999999999
 21
-82.8045
  0
LINE
  5
677
100
AcDbEntity
  8
BLACK
  6
ByLayer
 62
  256
370
   -1
100
AcDbLine
 10
91.821
 20
-82.4235
 11
93.09099999999999
 21
-82.4235
  0
ARC
  5
678
100
AcDbEntity
  8
BLACK
  6
ByLayer
 62
  256
370
   -1
100
AcDbCircle
 10
93.09099999999999
 20
-82.6135
 40
0.1905
100
AcDbArc
 50
270
 51
90
  0
ARC
  5
679
100
AcDbEntity
  8
BLACK
  6
ByLayer
 62
  256
370
   -1
100
AcDbCircle
 10
91.821
 20
-82.6135
 40
0.1905
100
AcDbArc
 50
90
 51
270
  0
LINE
  5
67A
100
AcDbEntity
  8
BLACK
  6
ByLayer
 62
  256
370
   -1
100
AcDbLine
 10
81.217
 20
-80.8355
 11
81.217
 21
-79.6925
  0
LINE
  5
67B
100
AcDbEntity
  8
BLACK
  6
ByLayer
 62
  256
370
   -1
100
AcDbLine
 10
80.836
 20
-80.8355
 11
80.836
 21
-79.6925
  0
ARC
  5
67C
100
AcDbEntity
  8
BLACK
  6
ByLayer
 62
  256
370
   -1
100
AcDbCircle
 10
81.026
 20
-79.6925
 40
0.1905
100
AcDbArc
 50
0
 51
180
  0
ARC
  5
67D
100
AcDbEntity
  8
BLACK
  6
ByLayer
 62
  256
370
   -1
100
AcDbCircle
 10
81.026
 20
-80.8355
 40
0.1905
100
AcDbArc
 50
180
 51
0
  0
LINE
  5
67E
100
AcDbEntity
  8
BLACK
  6
ByLayer
 62
  256
370
   -1
100
AcDbLine
 10
78.105
 20
-82.8045
 11
79.248
 21
-82.8045
  0
LINE
  5
67F
100
AcDbEntity
  8
BLACK
  6
ByLayer
 62
  256
370
   -1
100
AcDbLine
 10
78.105
 20
-82.4235
 11
79.248
 21
-82.4235
  0
ARC
  5
680
100
AcDbEntity
  8
BLACK
  6
ByLayer
 62
  256
370
   -1
100
AcDbCircle
 10
79.248
 20
-82.6135
 40
0.1905
100
AcDbArc
 50
270
 51
90
  0
ARC
  5
681
100
AcDbEntity
  8
BLACK
  6
ByLayer
 62
  256
370
   -1
100
AcDbCircle
 10
78.105
 20
-82.6135
 40
0.1905
100
AcDbArc
 50
90
 51
270
  0
LINE
  5
682
100
AcDbEntity
  8
BLACK
  6
ByLayer
 62
  256
370
   -1
100
AcDbLine
 10
78.105
 20
-91.9485
 11
79.248
 21
-91.9485
  0
LINE
  5
683
100
AcDbEntity
  8
BLACK
  6
ByLayer
 62
  256
370
   -1
100
AcDbLine
 10
78.105
 20
-91.5675
 11
79.248
 21
-91.5675
  0
ARC
  5
684
100
AcDbEntity
  8
BLACK
  6
ByLayer
 62
  256
370
   -1
100
AcDbCircle
 10
79.248
 20
-91.75749999999999
 40
0.1905
100
AcDbArc
 50
270
 51
90
  0
ARC
  5
685
100
AcDbEntity
  8
BLACK
  6
ByLayer
 62
  256
370
   -1
100
AcDbCircle
 10
78.105
 20
-91.75749999999999
 40
0.1905
100
AcDbArc
 50
90
 51
270
  0
LINE
  5
686
100
AcDbEntity
  8
BLACK
  6
ByLayer
 62
  256
370
   -1
100
AcDbLine
 10
81.217
 20
-94.6785
 11
81.217
 21
-93.5355
  0
LINE
  5
687
100
AcDbEntity
  8
BLACK
  6
ByLayer
 62
  256
370
   -1
100
AcDbLine
 10
80.836
 20
-94.6785
 11
80.836
 21
-93.5355
  0
ARC
  5
688
100
AcDbEntity
  8
BLACK
  6
ByLayer
 62
  256
370
   -1
100
AcDbCircle
 10
81.026
 20
-93.5355
 40
0.1905
100
AcDbArc
 50
0
 51
180
  0
ARC
  5
689
100
AcDbEntity
  8
BLACK
  6
ByLayer
 62
  256
370
   -1
100
AcDbCircle
 10
81.026
 20
-94.6785
 40
0.1905
100
AcDbArc
 50
180
 51
0
  0
LINE
  5
68A
100
AcDbEntity
  8
BLACK
  6
ByLayer
 62
  256
370
   -1
100
AcDbLine
 10
91.94799999999999
 20
-91.9485
 11
93.09099999999999
 21
-91.9485
  0
LINE
  5
68B
100
AcDbEntity
  8
BLACK
  6
ByLayer
 62
  256
370
   -1
100
AcDbLine
 10
91.94799999999999
 20
-91.5675
 11
93.09099999999999
 21
-91.5675
  0
ARC
  5
68C
100
AcDbEntity
  8
BLACK
  6
ByLayer
 62
  256
370
   -1
100
AcDbCircle
 10
93.09099999999999
 20
-91.75749999999999
 40
0.1905
100
AcDbArc
 50
270
 51
90
  0
ARC
  5
68D
100
AcDbEntity
  8
BLACK
  6
ByLayer
 62
  256
370
   -1
100
AcDbCircle
 10
91.94799999999999
 20
-91.75749999999999
 40
0.1905
100
AcDbArc
 50
90
 51
270
  0
LINE
  5
68E
100
AcDbEntity
  8
BLACK
  6
ByLayer
 62
  256
370
   -1
100
AcDbLine
 10
90.361
 20
-94.6785
 11
90.361
 21
-93.5355
  0
LINE
  5
68F
100
AcDbEntity
  8
BLACK
  6
ByLayer
 62
  256
370
   -1
100
AcDbLine
 10
89.98
 20
-94.6785
 11
89.98
 21
-93.5355
  0
ARC
  5
690
100
AcDbEntity
  8
BLACK
  6
ByLayer
 62
  256
370
   -1
100
AcDbCircle
 10
90.17
 20
-93.5355
 40
0.1905
100
AcDbArc
 50
0
 51
180
  0
ARC
  5
691
100
AcDbEntity
  8
BLACK
  6
ByLayer
 62
  256
370
   -1
100
AcDbCircle
 10
90.17
 20
-94.6785
 40
0.1905
100
AcDbArc
 50
180
 51
0
  0
ARC
  5
692
100
AcDbEntity
  8
BLACK
  6
ByLayer
 62
  256
370
   -1
100
AcDbCircle
 10
91.94799999999999
 20
-93.5355
 40
1.778
100
AcDbArc
 50
90
 51
180
  0
ARC
  5
693
100
AcDbEntity
  8
BLACK
  6
ByLayer
 62
  256
370
   -1
100
AcDbCircle
 10
79.248
 20
-93.5355
 40
1.778
100
AcDbArc
 50
0
 51
90
  0
ARC
  5
694
100
AcDbEntity
  8
BLACK
  6
ByLayer
 62
  256
370
   -1
100
AcDbCircle
 10
91.94799999999999
 20
-80.8355
 40
1.78253
100
AcDbArc
 50
175.9
 51
265.9
  0
ARC
  5
695
100
AcDbEntity
  8
BLACK
  6
ByLayer
 62
  256
370
   -1
100
AcDbCircle
 10
79.248
 20
-80.8355
 40
1.778
100
AcDbArc
 50
270
 51
0
  0
LINE
  5
696
100
AcDbEntity
  8
BLACK
  6
ByLayer
 62
  256
370
   -1
100
AcDbLine
 10
93.282
 20
-94.6785
 11
93.282
 21
-79.6925
  0
LINE
  5
697
100
AcDbEntity
  8
BLACK
  6
ByLayer
 62
  256
370
   -1
100
AcDbLine
 10
92.901
 20
-94.6785
 11
92.901
 21
-79.6925
  0
ARC
  5
698
100
AcDbEntity
  8
BLACK
  6
ByLayer
 62
  256
370
   -1
100
AcDbCircle
 10
93.09099999999999
 20
-79.6925
 40
0.1905
100
AcDbArc
 50
0
 51
180
  0
ARC
  5
699
100
AcDbEntity
  8
BLACK
  6
ByLayer
 62
  256
370
   -1
100
AcDbCircle
 10
93.09099999999999
 20
-94.6785
 40
0.1905
100
AcDbArc
 50
180
 51
0
  0
LINE
  5
69A
100
AcDbEntity
  8
BLACK
  6
ByLayer
 62
  256
370
   -1
100
AcDbLine
 10
78.105
 20
-79.8835
 11
93.09099999999999
 21
-79.8835
  0
LINE
  5
69B
100
AcDbEntity
  8
BLACK
  6
ByLayer
 62
  256
370
   -1
100
AcDbLine
 10
78.105
 20
-79.5025
 11
93.09099999999999
 21
-79.5025
  0
ARC
  5
69C
100
AcDbEntity
  8
BLACK
  6
ByLayer
 62
  256
370
   -1
100
AcDbCircle
 10
93.09099999999999
 20
-79.6925
 40
0.1905
100
AcDbArc
 50
270
 51
90
  0
ARC
  5
69D
100
AcDbEntity
  8
BLACK
  6
ByLayer
 62
  256
370
   -1
100
AcDbCircle
 10
78.105
 20
-79.6925
 40
0.1905
100
AcDbArc
 50
90
 51
270
  0
LINE
  5
69E
100
AcDbEntity
  8
BLACK
  6
ByLayer
 62
  256
370
   -1
100
AcDbLine
 10
78.29600000000001
 20
-94.6785
 11
78.29600000000001
 21
-79.6925
  0
LINE
  5
69F
100
AcDbEntity
  8
BLACK
  6
ByLayer
 62
  256
370
   -1
100
AcDbLine
 10
77.91500000000001
 20
-94.6785
 11
77.91500000000001
 21
-79.6925
  0
ARC
  5
6A0
100
AcDbEntity
  8
BLACK
  6
ByLayer
 62
  256
370
   -1
100
AcDbCircle
 10
78.105
 20
-79.6925
 40
0.1905
100
AcDbArc
 50
0
 51
180
  0
ARC
  5
6A1
100
AcDbEntity
  8
BLACK
  6
ByLayer
 62
  256
370
   -1
100
AcDbCircle
 10
78.105
 20
-94.6785
 40
0.1905
100
AcDbArc
 50
180
 51
0
  0
LINE
  5
6A2
100
AcDbEntity
  8
BLACK
  6
ByLayer
 62
  256
370
   -1
100
AcDbLine
 10
78.105
 20
-94.8695
 11
93.09099999999999
 21
-94.8695
  0
LINE
  5
6A3
100
AcDbEntity
  8
BLACK
  6
ByLayer
 62
  256
370
   -1
100
AcDbLine
 10
78.105
 20
-94.4885
 11
93.09099999999999
 21
-94.4885
  0
ARC
  5
6A4
100
AcDbEntity
  8
BLACK
  6
ByLayer
 62
  256
370
   -1
100
AcDbCircle
 10
93.09099999999999
 20
-94.6785
 40
0.1905
100
AcDbArc
 50
270
 51
90
  0
ARC
  5
6A5
100
AcDbEntity
  8
BLACK
  6
ByLayer
 62
  256
370
   -1
100
AcDbCircle
 10
78.105
 20
-94.6785
 40
0.1905
100
AcDbArc
 50
90
 51
270
  0
LINE
  5
6A6
100
AcDbEntity
  8
BLACK
  6
ByLayer
 62
  256
370
   -1
100
AcDbLine
 10
57.023
 20
-86.3605
 11
64.13500000000001
 21
-86.3605
  0
LINE
  5
6A7
100
AcDbEntity
  8
BLACK
  6
ByLayer
 62
  256
370
   -1
100
AcDbLine
 10
57.023
 20
-85.9795
 11
64.13500000000001
 21
-85.9795
  0
ARC
  5
6A8
100
AcDbEntity
  8
BLACK
  6
ByLayer
 62
  256
370
   -1
100
AcDbCircle
 10
64.13500000000001
 20
-86.1695
 40
0.1905
100
AcDbArc
 50
270
 51
90
  0
ARC
  5
6A9
100
AcDbEntity
  8
BLACK
  6
ByLayer
 62
  256
370
   -1
100
AcDbCircle
 10
57.023
 20
-86.1695
 40
0.1905
100
AcDbArc
 50
90
 51
270
  0
LINE
  5
6AA
100
AcDbEntity
  8
BLACK
  6
ByLayer
 62
  256
370
   -1
100
AcDbLine
 10
64.32599999999999
 20
-88.0745
 11
64.32599999999999
 21
-86.1695
  0
LINE
  5
6AB
100
AcDbEntity
  8
BLACK
  6
ByLayer
 62
  256
370
   -1
100
AcDbLine
 10
63.945
 20
-88.0745
 11
63.945
 21
-86.1695
  0
ARC
  5
6AC
100
AcDbEntity
  8
BLACK
  6
ByLayer
 62
  256
370
   -1
100
AcDbCircle
 10
64.13500000000001
 20
-86.1695
 40
0.1905
100
AcDbArc
 50
0
 51
180
  0
ARC
  5
6AD
100
AcDbEntity
  8
BLACK
  6
ByLayer
 62
  256
370
   -1
100
AcDbCircle
 10
64.13500000000001
 20
-88.0745
 40
0.1905
100
AcDbArc
 50
180
 51
0
  0
LINE
  5
6AE
100
AcDbEntity
  8
BLACK
  6
ByLayer
 62
  256
370
   -1
100
AcDbLine
 10
64.32599999999999
 20
-88.2015
 11
64.32599999999999
 21
-88.0745
  0
LINE
  5
6AF
100
AcDbEntity
  8
BLACK
  6
ByLayer
 62
  256
370
   -1
100
AcDbLine
 10
63.945
 20
-88.2015
 11
63.945
 21
-88.0745
  0
ARC
  5
6B0
100
AcDbEntity
  8
BLACK
  6
ByLayer
 62
  256
370
   -1
100
AcDbCircle
 10
64.13500000000001
 20
-88.0745
 40
0.1905
100
AcDbArc
 50
0
 51
180
  0
ARC
  5
6B1
100
AcDbEntity
  8
BLACK
  6
ByLayer
 62
  256
370
   -1
100
AcDbCircle
 10
64.13500000000001
 20
-88.2015
 40
0.1905
100
AcDbArc
 50
180
 51
0
  0
LINE
  5
6B2
100
AcDbEntity
  8
BLACK
  6
ByLayer
 62
  256
370
   -1
100
AcDbLine
 10
57.023
 20
-88.3925
 11
64.13500000000001
 21
-88.3925
  0
LINE
  5
6B3
100
AcDbEntity
  8
BLACK
  6
ByLayer
 62
  256
370
   -1
100
AcDbLine
 10
57.023
 20
-88.0115
 11
64.13500000000001
 21
-88.0115
  0
ARC
  5
6B4
100
AcDbEntity
  8
BLACK
  6
ByLayer
 62
  256
370
   -1
100
AcDbCircle
 10
64.13500000000001
 20
-88.2015
 40
0.1905
100
AcDbArc
 50
270
 51
90
  0
ARC
  5
6B5
100
AcDbEntity
  8
BLACK
  6
ByLayer
 62
  256
370
   -1
100
AcDbCircle
 10
57.023
 20
-88.2015
 40
0.1905
100
AcDbArc
 50
90
 51
270
  0
LINE
  5
6B6
100
AcDbEntity
  8
BLACK
  6
ByLayer
 62
  256
370
   -1
100
AcDbLine
 10
57.214
 20
-88.2015
 11
57.214
 21
-86.1695
  0
LINE
  5
6B7
100
AcDbEntity
  8
BLACK
  6
ByLayer
 62
  256
370
   -1
100
AcDbLine
 10
56.833
 20
-88.2015
 11
56.833
 21
-86.1695
  0
ARC
  5
6B8
100
AcDbEntity
  8
BLACK
  6
ByLayer
 62
  256
370
   -1
100
AcDbCircle
 10
57.023
 20
-86.1695
 40
0.1905
100
AcDbArc
 50
0
 51
180
  0
ARC
  5
6B9
100
AcDbEntity
  8
BLACK
  6
ByLayer
 62
  256
370
   -1
100
AcDbCircle
 10
57.023
 20
-88.2015
 40
0.1905
100
AcDbArc
 50
180
 51
0
  0
LINE
  5
6BA
100
AcDbEntity
  8
BLACK
  6
ByLayer
 62
  256
370
   -1
100
AcDbLine
 10
56.007
 20
-94.2345
 11
65.151
 21
-94.2345
  0
LINE
  5
6BB
100
AcDbEntity
  8
BLACK
  6
ByLayer
 62
  256
370
   -1
100
AcDbLine
 10
56.007
 20
-93.8535
 11
65.151
 21
-93.8535
  0
ARC
  5
6BC
100
AcDbEntity
  8
BLACK
  6
ByLayer
 62
  256
370
   -1
100
AcDbCircle
 10
65.151
 20
-94.04349999999999
 40
0.1905
100
AcDbArc
 50
270
 51
90
  0
ARC
  5
6BD
100
AcDbEntity
  8
BLACK
  6
ByLayer
 62
  256
370
   -1
100
AcDbCircle
 10
56.007
 20
-94.04349999999999
 40
0.1905
100
AcDbArc
 50
90
 51
270
  0
LINE
  5
6BE
100
AcDbEntity
  8
BLACK
  6
ByLayer
 62
  256
370
   -1
100
AcDbLine
 10
56.007
 20
-80.5185
 11
65.151
 21
-80.5185
  0
LINE
  5
6BF
100
AcDbEntity
  8
BLACK
  6
ByLayer
 62
  256
370
   -1
100
AcDbLine
 10
56.007
 20
-80.1375
 11
65.151
 21
-80.1375
  0
ARC
  5
6C0
100
AcDbEntity
  8
BLACK
  6
ByLayer
 62
  256
370
   -1
100
AcDbCircle
 10
65.151
 20
-80.3275
 40
0.1905
100
AcDbArc
 50
270
 51
90
  0
ARC
  5
6C1
100
AcDbEntity
  8
BLACK
  6
ByLayer
 62
  256
370
   -1
100
AcDbCircle
 10
56.007
 20
-80.3275
 40
0.1905
100
AcDbArc
 50
90
 51
270
  0
LINE
  5
6C2
100
AcDbEntity
  8
BLACK
  6
ByLayer
 62
  256
370
   -1
100
AcDbLine
 10
65.342
 20
-80.7085
 11
65.342
 21
-79.81950000000001
  0
LINE
  5
6C3
100
AcDbEntity
  8
BLACK
  6
ByLayer
 62
  256
370
   -1
100
AcDbLine
 10
64.961
 20
-80.7085
 11
64.961
 21
-79.81950000000001
  0
ARC
  5
6C4
100
AcDbEntity
  8
BLACK
  6
ByLayer
 62
  256
370
   -1
100
AcDbCircle
 10
65.151
 20
-79.81950000000001
 40
0.1905
100
AcDbArc
 50
0
 51
180
  0
ARC
  5
6C5
100
AcDbEntity
  8
BLACK
  6
ByLayer
 62
  256
370
   -1
100
AcDbCircle
 10
65.151
 20
-80.7085
 40
0.1905
100
AcDbArc
 50
180
 51
0
  0
LINE
  5
6C6
100
AcDbEntity
  8
BLACK
  6
ByLayer
 62
  256
370
   -1
100
AcDbLine
 10
66.80200000000001
 20
-82.8045
 11
68.072
 21
-82.8045
  0
LINE
  5
6C7
100
AcDbEntity
  8
BLACK
  6
ByLayer
 62
  256
370
   -1
100
AcDbLine
 10
66.80200000000001
 20
-82.4235
 11
68.072
 21
-82.4235
  0
ARC
  5
6C8
100
AcDbEntity
  8
BLACK
  6
ByLayer
 62
  256
370
   -1
100
AcDbCircle
 10
68.072
 20
-82.6135
 40
0.1905
100
AcDbArc
 50
270
 51
90
  0
ARC
  5
6C9
100
AcDbEntity
  8
BLACK
  6
ByLayer
 62
  256
370
   -1
100
AcDbCircle
 10
66.80200000000001
 20
-82.6135
 40
0.1905
100
AcDbArc
 50
90
 51
270
  0
LINE
  5
6CA
100
AcDbEntity
  8
BLACK
  6
ByLayer
 62
  256
370
   -1
100
AcDbLine
 10
56.198
 20
-80.8355
 11
56.198
 21
-79.6925
  0
LINE
  5
6CB
100
AcDbEntity
  8
BLACK
  6
ByLayer
 62
  256
370
   -1
100
AcDbLine
 10
55.817
 20
-80.8355
 11
55.817
 21
-79.6925
  0
ARC
  5
6CC
100
AcDbEntity
  8
BLACK
  6
ByLayer
 62
  256
370
   -1
100
AcDbCircle
 10
56.007
 20
-79.6925
 40
0.1905
100
AcDbArc
 50
0
 51
180
  0
ARC
  5
6CD
100
AcDbEntity
  8
BLACK
  6
ByLayer
 62
  256
370
   -1
100
AcDbCircle
 10
56.007
 20
-80.8355
 40
0.1905
100
AcDbArc
 50
180
 51
0
  0
LINE
  5
6CE
100
AcDbEntity
  8
BLACK
  6
ByLayer
 62
  256
370
   -1
100
AcDbLine
 10
53.086
 20
-82.8045
 11
54.229
 21
-82.8045
  0
LINE
  5
6CF
100
AcDbEntity
  8
BLACK
  6
ByLayer
 62
  256
370
   -1
100
AcDbLine
 10
53.086
 20
-82.4235
 11
54.229
 21
-82.4235
  0
ARC
  5
6D0
100
AcDbEntity
  8
BLACK
  6
ByLayer
 62
  256
370
   -1
100
AcDbCircle
 10
54.229
 20
-82.6135
 40
0.1905
100
AcDbArc
 50
270
 51
90
  0
ARC
  5
6D1
100
AcDbEntity
  8
BLACK
  6
ByLayer
 62
  256
370
   -1
100
AcDbCircle
 10
53.086
 20
-82.6135
 40
0.1905
100
AcDbArc
 50
90
 51
270
  0
LINE
  5
6D2
100
AcDbEntity
  8
BLACK
  6
ByLayer
 62
  256
370
   -1
100
AcDbLine
 10
53.086
 20
-91.9485
 11
54.229
 21
-91.9485
  0
LINE
  5
6D3
100
AcDbEntity
  8
BLACK
  6
ByLayer
 62
  256
370
   -1
100
AcDbLine
 10
53.086
 20
-91.5675
 11
54.229
 21
-91.5675
  0
ARC
  5
6D4
100
AcDbEntity
  8
BLACK
  6
ByLayer
 62
  256
370
   -1
100
AcDbCircle
 10
54.229
 20
-91.75749999999999
 40
0.1905
100
AcDbArc
 50
270
 51
90
  0
ARC
  5
6D5
100
AcDbEntity
  8
BLACK
  6
ByLayer
 62
  256
370
   -1
100
AcDbCircle
 10
53.086
 20
-91.75749999999999
 40
0.1905
100
AcDbArc
 50
90
 51
270
  0
LINE
  5
6D6
100
AcDbEntity
  8
BLACK
  6
ByLayer
 62
  256
370
   -1
100
AcDbLine
 10
56.198
 20
-94.6785
 11
56.198
 21
-93.5355
  0
LINE
  5
6D7
100
AcDbEntity
  8
BLACK
  6
ByLayer
 62
  256
370
   -1
100
AcDbLine
 10
55.817
 20
-94.6785
 11
55.817
 21
-93.5355
  0
ARC
  5
6D8
100
AcDbEntity
  8
BLACK
  6
ByLayer
 62
  256
370
   -1
100
AcDbCircle
 10
56.007
 20
-93.5355
 40
0.1905
100
AcDbArc
 50
0
 51
180
  0
ARC
  5
6D9
100
AcDbEntity
  8
BLACK
  6
ByLayer
 62
  256
370
   -1
100
AcDbCircle
 10
56.007
 20
-94.6785
 40
0.1905
100
AcDbArc
 50
180
 51
0
  0
LINE
  5
6DA
100
AcDbEntity
  8
BLACK
  6
ByLayer
 62
  256
370
   -1
100
AcDbLine
 10
66.929
 20
-91.9485
 11
68.072
 21
-91.9485
  0
LINE
  5
6DB
100
AcDbEntity
  8
BLACK
  6
ByLayer
 62
  256
370
   -1
100
AcDbLine
 10
66.929
 20
-91.5675
 11
68.072
 21
-91.5675
  0
ARC
  5
6DC
100
AcDbEntity
  8
BLACK
  6
ByLayer
 62
  256
370
   -1
100
AcDbCircle
 10
68.072
 20
-91.75749999999999
 40
0.1905
100
AcDbArc
 50
270
 51
90
  0
ARC
  5
6DD
100
AcDbEntity
  8
BLACK
  6
ByLayer
 62
  256
370
   -1
100
AcDbCircle
 10
66.929
 20
-91.75749999999999
 40
0.1905
100
AcDbArc
 50
90
 51
270
  0
LINE
  5
6DE
100
AcDbEntity
  8
BLACK
  6
ByLayer
 62
  256
370
   -1
100
AcDbLine
 10
65.342
 20
-94.6785
 11
65.342
 21
-93.5355
  0
LINE
  5
6DF
100
AcDbEntity
  8
BLACK
  6
ByLayer
 62
  256
370
   -1
100
AcDbLine
 10
64.961
 20
-94.6785
 11
64.961
 21
-93.5355
  0
ARC
  5
6E0
100
AcDbEntity
  8
BLACK
  6
ByLayer
 62
  256
370
   -1
100
AcDbCircle
 10
65.151
 20
-93.5355
 40
0.1905
100
AcDbArc
 50
0
 51
180
  0
ARC
  5
6E1
100
AcDbEntity
  8
BLACK
  6
ByLayer
 62
  256
370
   -1
100
AcDbCircle
 10
65.151
 20
-94.6785
 40
0.1905
100
AcDbArc
 50
180
 51
0
  0
ARC
  5
6E2
100
AcDbEntity
  8
BLACK
  6
ByLayer
 62
  256
370
   -1
100
AcDbCircle
 10
66.929
 20
-93.5355
 40
1.778
100
AcDbArc
 50
90
 51
180
  0
ARC
  5
6E3
100
AcDbEntity
  8
BLACK
  6
ByLayer
 62
  256
370
   -1
100
AcDbCircle
 10
54.229
 20
-93.5355
 40
1.778
100
AcDbArc
 50
0
 51
90
  0
ARC
  5
6E4
100
AcDbEntity
  8
BLACK
  6
ByLayer
 62
  256
370
   -1
100
AcDbCircle
 10
66.929
 20
-80.8355
 40
1.78253
100
AcDbArc
 50
175.9
 51
265.9
  0
ARC
  5
6E5
100
AcDbEntity
  8
BLACK
  6
ByLayer
 62
  256
370
   -1
100
AcDbCircle
 10
54.229
 20
-80.8355
 40
1.778
100
AcDbArc
 50
270
 51
0
  0
LINE
  5
6E6
100
AcDbEntity
  8
BLACK
  6
ByLayer
 62
  256
370
   -1
100
AcDbLine
 10
68.26300000000001
 20
-94.6785
 11
68.26300000000001
 21
-79.6925
  0
LINE
  5
6E7
100
AcDbEntity
  8
BLACK
  6
ByLayer
 62
  256
370
   -1
100
AcDbLine
 10
67.88200000000001
 20
-94.6785
 11
67.88200000000001
 21
-79.6925
  0
ARC
  5
6E8
100
AcDbEntity
  8
BLACK
  6
ByLayer
 62
  256
370
   -1
100
AcDbCircle
 10
68.072
 20
-79.6925
 40
0.1905
100
AcDbArc
 50
0
 51
180
  0
ARC
  5
6E9
100
AcDbEntity
  8
BLACK
  6
ByLayer
 62
  256
370
   -1
100
AcDbCircle
 10
68.072
 20
-94.6785
 40
0.1905
100
AcDbArc
 50
180
 51
0
  0
LINE
  5
6EA
100
AcDbEntity
  8
BLACK
  6
ByLayer
 62
  256
370
   -1
100
AcDbLine
 10
53.086
 20
-79.8835
 11
68.072
 21
-79.8835
  0
LINE
  5
6EB
100
AcDbEntity
  8
BLACK
  6
ByLayer
 62
  256
370
   -1
100
AcDbLine
 10
53.086
 20
-79.5025
 11
68.072
 21
-79.5025
  0
ARC
  5
6EC
100
AcDbEntity
  8
BLACK
  6
ByLayer
 62
  256
370
   -1
100
AcDbCircle
 10
68.072
 20
-79.6925
 40
0.1905
100
AcDbArc
 50
270
 51
90
  0
ARC
  5
6ED
100
AcDbEntity
  8
BLACK
  6
ByLayer
 62
  256
370
   -1
100
AcDbCircle
 10
53.086
 20
-79.6925
 40
0.1905
100
AcDbArc
 50
90
 51
270
  0
LINE
  5
6EE
100
AcDbEntity
  8
BLACK
  6
ByLayer
 62
  256
370
   -1
100
AcDbLine
 10
53.277
 20
-94.6785
 11
53.277
 21
-79.6925
  0
LINE
  5
6EF
100
AcDbEntity
  8
BLACK
  6
ByLayer
 62
  256
370
   -1
100
AcDbLine
 10
52.896
 20
-94.6785
 11
52.896
 21
-79.6925
  0
ARC
  5
6F0
100
AcDbEntity
  8
BLACK
  6
ByLayer
 62
  256
370
   -1
100
AcDbCircle
 10
53.086
 20
-79.6925
 40
0.1905
100
AcDbArc
 50
0
 51
180
  0
ARC
  5
6F1
100
AcDbEntity
  8
BLACK
  6
ByLayer
 62
  256
370
   -1
100
AcDbCircle
 10
53.086
 20
-94.6785
 40
0.1905
100
AcDbArc
 50
180
 51
0
  0
LINE
  5
6F2
100
AcDbEntity
  8
BLACK
  6
ByLayer
 62
  256
370
   -1
100
AcDbLine
 10
53.086
 20
-94.8695
 11
68.072
 21
-94.8695
  0
LINE
  5
6F3
100
AcDbEntity
  8
BLACK
  6
ByLayer
 62
  256
370
   -1
100
AcDbLine
 10
53.086
 20
-94.4885
 11
68.072
 21
-94.4885
  0
ARC
  5
6F4
100
AcDbEntity
  8
BLACK
  6
ByLayer
 62
  256
370
   -1
100
AcDbCircle
 10
68.072
 20
-94.6785
 40
0.1905
100
AcDbArc
 50
270
 51
90
  0
ARC
  5
6F5
100
AcDbEntity
  8
BLACK
  6
ByLayer
 62
  256
370
   -1
100
AcDbCircle
 10
53.086
 20
-94.6785
 40
0.1905
100
AcDbArc
 50
90
 51
270
  0
LINE
  5
6F6
100
AcDbEntity
  8
BLACK
  6
ByLayer
 62
  256
370
   -1
100
AcDbLine
 10
32.004
 20
-86.3605
 11
39.116
 21
-86.3605
  0
LINE
  5
6F7
100
AcDbEntity
  8
BLACK
  6
ByLayer
 62
  256
370
   -1
100
AcDbLine
 10
32.004
 20
-85.9795
 11
39.116
 21
-85.9795
  0
ARC
  5
6F8
100
AcDbEntity
  8
BLACK
  6
ByLayer
 62
  256
370
   -1
100
AcDbCircle
 10
39.116
 20
-86.1695
 40
0.1905
100
AcDbArc
 50
270
 51
90
  0
ARC
  5
6F9
100
AcDbEntity
  8
BLACK
  6
ByLayer
 62
  256
370
   -1
100
AcDbCircle
 10
32.004
 20
-86.1695
 40
0.1905
100
AcDbArc
 50
90
 51
270
  0
LINE
  5
6FA
100
AcDbEntity
  8
BLACK
  6
ByLayer
 62
  256
370
   -1
100
AcDbLine
 10
39.307
 20
-88.0745
 11
39.307
 21
-86.1695
  0
LINE
  5
6FB
100
AcDbEntity
  8
BLACK
  6
ByLayer
 62
  256
370
   -1
100
AcDbLine
 10
38.926
 20
-88.0745
 11
38.926
 21
-86.1695
  0
ARC
  5
6FC
100
AcDbEntity
  8
BLACK
  6
ByLayer
 62
  256
370
   -1
100
AcDbCircle
 10
39.116
 20
-86.1695
 40
0.1905
100
AcDbArc
 50
0
 51
180
  0
ARC
  5
6FD
100
AcDbEntity
  8
BLACK
  6
ByLayer
 62
  256
370
   -1
100
AcDbCircle
 10
39.116
 20
-88.0745
 40
0.1905
100
AcDbArc
 50
180
 51
0
  0
LINE
  5
6FE
100
AcDbEntity
  8
BLACK
  6
ByLayer
 62
  256
370
   -1
100
AcDbLine
 10
39.307
 20
-88.2015
 11
39.307
 21
-88.0745
  0
LINE
  5
6FF
100
AcDbEntity
  8
BLACK
  6
ByLayer
 62
  256
370
   -1
100
AcDbLine
 10
38.926
 20
-88.2015
 11
38.926
 21
-88.0745
  0
ARC
  5
700
100
AcDbEntity
  8
BLACK
  6
ByLayer
 62
  256
370
   -1
100
AcDbCircle
 10
39.116
 20
-88.0745
 40
0.1905
100
AcDbArc
 50
0
 51
180
  0
ARC
  5
701
100
AcDbEntity
  8
BLACK
  6
ByLayer
 62
  256
370
   -1
100
AcDbCircle
 10
39.116
 20
-88.2015
 40
0.1905
100
AcDbArc
 50
180
 51
0
  0
LINE
  5
702
100
AcDbEntity
  8
BLACK
  6
ByLayer
 62
  256
370
   -1
100
AcDbLine
 10
32.004
 20
-88.3925
 11
39.116
 21
-88.3925
  0
LINE
  5
703
100
AcDbEntity
  8
BLACK
  6
ByLayer
 62
  256
370
   -1
100
AcDbLine
 10
32.004
 20
-88.0115
 11
39.116
 21
-88.0115
  0
ARC
  5
704
100
AcDbEntity
  8
BLACK
  6
ByLayer
 62
  256
370
   -1
100
AcDbCircle
 10
39.116
 20
-88.2015
 40
0.1905
100
AcDbArc
 50
270
 51
90
  0
ARC
  5
705
100
AcDbEntity
  8
BLACK
  6
ByLayer
 62
  256
370
   -1
100
AcDbCircle
 10
32.004
 20
-88.2015
 40
0.1905
100
AcDbArc
 50
90
 51
270
  0
LINE
  5
706
100
AcDbEntity
  8
BLACK
  6
ByLayer
 62
  256
370
   -1
100
AcDbLine
 10
32.195
 20
-88.2015
 11
32.195
 21
-86.1695
  0
LINE
  5
707
100
AcDbEntity
  8
BLACK
  6
ByLayer
 62
  256
370
   -1
100
AcDbLine
 10
31.814
 20
-88.2015
 11
31.814
 21
-86.1695
  0
ARC
  5
708
100
AcDbEntity
  8
BLACK
  6
ByLayer
 62
  256
370
   -1
100
AcDbCircle
 10
32.004
 20
-86.1695
 40
0.1905
100
AcDbArc
 50
0
 51
180
  0
ARC
  5
709
100
AcDbEntity
  8
BLACK
  6
ByLayer
 62
  256
370
   -1
100
AcDbCircle
 10
32.004
 20
-88.2015
 40
0.1905
100
AcDbArc
 50
180
 51
0
  0
LINE
  5
70A
100
AcDbEntity
  8
BLACK
  6
ByLayer
 62
  256
370
   -1
100
AcDbLine
 10
30.988
 20
-94.2345
 11
40.132
 21
-94.2345
  0
LINE
  5
70B
100
AcDbEntity
  8
BLACK
  6
ByLayer
 62
  256
370
   -1
100
AcDbLine
 10
30.988
 20
-93.8535
 11
40.132
 21
-93.8535
  0
ARC
  5
70C
100
AcDbEntity
  8
BLACK
  6
ByLayer
 62
  256
370
   -1
100
AcDbCircle
 10
40.132
 20
-94.04349999999999
 40
0.1905
100
AcDbArc
 50
270
 51
90
  0
ARC
  5
70D
100
AcDbEntity
  8
BLACK
  6
ByLayer
 62
  256
370
   -1
100
AcDbCircle
 10
30.988
 20
-94.04349999999999
 40
0.1905
100
AcDbArc
 50
90
 51
270
  0
LINE
  5
70E
100
AcDbEntity
  8
BLACK
  6
ByLayer
 62
  256
370
   -1
100
AcDbLine
 10
30.988
 20
-80.5185
 11
40.132
 21
-80.5185
  0
LINE
  5
70F
100
AcDbEntity
  8
BLACK
  6
ByLayer
 62
  256
370
   -1
100
AcDbLine
 10
30.988
 20
-80.1375
 11
40.132
 21
-80.1375
  0
ARC
  5
710
100
AcDbEntity
  8
BLACK
  6
ByLayer
 62
  256
370
   -1
100
AcDbCircle
 10
40.132
 20
-80.3275
 40
0.1905
100
AcDbArc
 50
270
 51
90
  0
ARC
  5
711
100
AcDbEntity
  8
BLACK
  6
ByLayer
 62
  256
370
   -1
100
AcDbCircle
 10
30.988
 20
-80.3275
 40
0.1905
100
AcDbArc
 50
90
 51
270
  0
LINE
  5
712
100
AcDbEntity
  8
BLACK
  6
ByLayer
 62
  256
370
   -1
100
AcDbLine
 10
40.323
 20
-80.7085
 11
40.323
 21
-79.81950000000001
  0
LINE
  5
713
100
AcDbEntity
  8
BLACK
  6
ByLayer
 62
  256
370
   -1
100
AcDbLine
 10
39.942
 20
-80.7085
 11
39.942
 21
-79.81950000000001
  0
ARC
  5
714
100
AcDbEntity
  8
BLACK
  6
ByLayer
 62
  256
370
   -1
100
AcDbCircle
 10
40.132
 20
-79.81950000000001
 40
0.1905
100
AcDbArc
 50
0
 51
180
  0
ARC
  5
715
100
AcDbEntity
  8
BLACK
  6
ByLayer
 62
  256
370
   -1
100
AcDbCircle
 10
40.132
 20
-80.7085
 40
0.1905
100
AcDbArc
 50
180
 51
0
  0
LINE
  5
716
100
AcDbEntity
  8
BLACK
  6
ByLayer
 62
  256
370
   -1
100
AcDbLine
 10
41.783
 20
-82.8045
 11
43.053
 21
-82.8045
  0
LINE
  5
717
100
AcDbEntity
  8
BLACK
  6
ByLayer
 62
  256
370
   -1
100
AcDbLine
 10
41.783
 20
-82.4235
 11
43.053
 21
-82.4235
  0
ARC
  5
718
100
AcDbEntity
  8
BLACK
  6
ByLayer
 62
  256
370
   -1
100
AcDbCircle
 10
43.053
 20
-82.6135
 40
0.1905
100
AcDbArc
 50
270
 51
90
  0
ARC
  5
719
100
AcDbEntity
  8
BLACK
  6
ByLayer
 62
  256
370
   -1
100
AcDbCircle
 10
41.783
 20
-82.6135
 40
0.1905
100
AcDbArc
 50
90
 51
270
  0
LINE
  5
71A
100
AcDbEntity
  8
BLACK
  6
ByLayer
 62
  256
370
   -1
100
AcDbLine
 10
31.179
 20
-80.8355
 11
31.179
 21
-79.6925
  0
LINE
  5
71B
100
AcDbEntity
  8
BLACK
  6
ByLayer
 62
  256
370
   -1
100
AcDbLine
 10
30.798
 20
-80.8355
 11
30.798
 21
-79.6925
  0
ARC
  5
71C
100
AcDbEntity
  8
BLACK
  6
ByLayer
 62
  256
370
   -1
100
AcDbCircle
 10
30.988
 20
-79.6925
 40
0.1905
100
AcDbArc
 50
0
 51
180
  0
ARC
  5
71D
100
AcDbEntity
  8
BLACK
  6
ByLayer
 62
  256
370
   -1
100
AcDbCircle
 10
30.988
 20
-80.8355
 40
0.1905
100
AcDbArc
 50
180
 51
0
  0
LINE
  5
71E
100
AcDbEntity
  8
BLACK
  6
ByLayer
 62
  256
370
   -1
100
AcDbLine
 10
28.067
 20
-82.8045
 11
29.21
 21
-82.8045
  0
LINE
  5
71F
100
AcDbEntity
  8
BLACK
  6
ByLayer
 62
  256
370
   -1
100
AcDbLine
 10
28.067
 20
-82.4235
 11
29.21
 21
-82.4235
  0
ARC
  5
720
100
AcDbEntity
  8
BLACK
  6
ByLayer
 62
  256
370
   -1
100
AcDbCircle
 10
29.21
 20
-82.6135
 40
0.1905
100
AcDbArc
 50
270
 51
90
  0
ARC
  5
721
100
AcDbEntity
  8
BLACK
  6
ByLayer
 62
  256
370
   -1
100
AcDbCircle
 10
28.067
 20
-82.6135
 40
0.1905
100
AcDbArc
 50
90
 51
270
  0
LINE
  5
722
100
AcDbEntity
  8
BLACK
  6
ByLayer
 62
  256
370
   -1
100
AcDbLine
 10
28.067
 20
-91.9485
 11
29.21
 21
-91.9485
  0
LINE
  5
723
100
AcDbEntity
  8
BLACK
  6
ByLayer
 62
  256
370
   -1
100
AcDbLine
 10
28.067
 20
-91.5675
 11
29.21
 21
-91.5675
  0
ARC
  5
724
100
AcDbEntity
  8
BLACK
  6
ByLayer
 62
  256
370
   -1
100
AcDbCircle
 10
29.21
 20
-91.75749999999999
 40
0.1905
100
AcDbArc
 50
270
 51
90
  0
ARC
  5
725
100
AcDbEntity
  8
BLACK
  6
ByLayer
 62
  256
370
   -1
100
AcDbCircle
 10
28.067
 20
-91.75749999999999
 40
0.1905
100
AcDbArc
 50
90
 51
270
  0
LINE
  5
726
100
AcDbEntity
  8
BLACK
  6
ByLayer
 62
  256
370
   -1
100
AcDbLine
 10
31.179
 20
-94.6785
 11
31.179
 21
-93.5355
  0
LINE
  5
727
100
AcDbEntity
  8
BLACK
  6
ByLayer
 62
  256
370
   -1
100
AcDbLine
 10
30.798
 20
-94.6785
 11
30.798
 21
-93.5355
  0
ARC
  5
728
100
AcDbEntity
  8
BLACK
  6
ByLayer
 62
  256
370
   -1
100
AcDbCircle
 10
30.988
 20
-93.5355
 40
0.1905
100
AcDbArc
 50
0
 51
180
  0
ARC
  5
729
100
AcDbEntity
  8
BLACK
  6
ByLayer
 62
  256
370
   -1
100
AcDbCircle
 10
30.988
 20
-94.6785
 40
0.1905
100
AcDbArc
 50
180
 51
0
  0
LINE
  5
72A
100
AcDbEntity
  8
BLACK
  6
ByLayer
 62
  256
370
   -1
100
AcDbLine
 10
41.91
 20
-91.9485
 11
43.053
 21
-91.9485
  0
LINE
  5
72B
100
AcDbEntity
  8
BLACK
  6
ByLayer
 62
  256
370
   -1
100
AcDbLine
 10
41.91
 20
-91.5675
 11
43.053
 21
-91.5675
  0
ARC
  5
72C
100
AcDbEntity
  8
BLACK
  6
ByLayer
 62
  256
370
   -1
100
AcDbCircle
 10
43.053
 20
-91.75749999999999
 40
0.1905
100
AcDbArc
 50
270
 51
90
  0
ARC
  5
72D
100
AcDbEntity
  8
BLACK
  6
ByLayer
 62
  256
370
   -1
100
AcDbCircle
 10
41.91
 20
-91.75749999999999
 40
0.1905
100
AcDbArc
 50
90
 51
270
  0
LINE
  5
72E
100
AcDbEntity
  8
BLACK
  6
ByLayer
 62
  256
370
   -1
100
AcDbLine
 10
40.323
 20
-94.6785
 11
40.323
 21
-93.5355
  0
LINE
  5
72F
100
AcDbEntity
  8
BLACK
  6
ByLayer
 62
  256
370
   -1
100
AcDbLine
 10
39.942
 20
-94.6785
 11
39.942
 21
-93.5355
  0
ARC
  5
730
100
AcDbEntity
  8
BLACK
  6
ByLayer
 62
  256
370
   -1
100
AcDbCircle
 10
40.132
 20
-93.5355
 40
0.1905
100
AcDbArc
 50
0
 51
180
  0
ARC
  5
731
100
AcDbEntity
  8
BLACK
  6
ByLayer
 62
  256
370
   -1
100
AcDbCircle
 10
40.132
 20
-94.6785
 40
0.1905
100
AcDbArc
 50
180
 51
0
  0
ARC
  5
732
100
AcDbEntity
  8
BLACK
  6
ByLayer
 62
  256
370
   -1
100
AcDbCircle
 10
41.91
 20
-93.5355
 40
1.778
100
AcDbArc
 50
90
 51
180
  0
ARC
  5
733
100
AcDbEntity
  8
BLACK
  6
ByLayer
 62
  256
370
   -1
100
AcDbCircle
 10
29.21
 20
-93.5355
 40
1.778
100
AcDbArc
 50
0
 51
90
  0
ARC
  5
734
100
AcDbEntity
  8
BLACK
  6
ByLayer
 62
  256
370
   -1
100
AcDbCircle
 10
41.91
 20
-80.8355
 40
1.78253
100
AcDbArc
 50
175.9
 51
265.9
  0
ARC
  5
735
100
AcDbEntity
  8
BLACK
  6
ByLayer
 62
  256
370
   -1
100
AcDbCircle
 10
29.21
 20
-80.8355
 40
1.778
100
AcDbArc
 50
270
 51
0
  0
LINE
  5
736
100
AcDbEntity
  8
BLACK
  6
ByLayer
 62
  256
370
   -1
100
AcDbLine
 10
43.244
 20
-94.6785
 11
43.244
 21
-79.6925
  0
LINE
  5
737
100
AcDbEntity
  8
BLACK
  6
ByLayer
 62
  256
370
   -1
100
AcDbLine
 10
42.863
 20
-94.6785
 11
42.863
 21
-79.6925
  0
ARC
  5
738
100
AcDbEntity
  8
BLACK
  6
ByLayer
 62
  256
370
   -1
100
AcDbCircle
 10
43.053
 20
-79.6925
 40
0.1905
100
AcDbArc
 50
0
 51
180
  0
ARC
  5
739
100
AcDbEntity
  8
BLACK
  6
ByLayer
 62
  256
370
   -1
100
AcDbCircle
 10
43.053
 20
-94.6785
 40
0.1905
100
AcDbArc
 50
180
 51
0
  0
LINE
  5
73A
100
AcDbEntity
  8
BLACK
  6
ByLayer
 62
  256
370
   -1
100
AcDbLine
 10
28.067
 20
-79.8835
 11
43.053
 21
-79.8835
  0
LINE
  5
73B
100
AcDbEntity
  8
BLACK
  6
ByLayer
 62
  256
370
   -1
100
AcDbLine
 10
28.067
 20
-79.5025
 11
43.053
 21
-79.5025
  0
ARC
  5
73C
100
AcDbEntity
  8
BLACK
  6
ByLayer
 62
  256
370
   -1
100
AcDbCircle
 10
43.053
 20
-79.6925
 40
0.1905
100
AcDbArc
 50
270
 51
90
  0
ARC
  5
73D
100
AcDbEntity
  8
BLACK
  6
ByLayer
 62
  256
370
   -1
100
AcDbCircle
 10
28.067
 20
-79.6925
 40
0.1905
100
AcDbArc
 50
90
 51
270
  0
LINE
  5
73E
100
AcDbEntity
  8
BLACK
  6
ByLayer
 62
  256
370
   -1
100
AcDbLine
 10
28.258
 20
-94.6785
 11
28.258
 21
-79.6925
  0
LINE
  5
73F
100
AcDbEntity
  8
BLACK
  6
ByLayer
 62
  256
370
   -1
100
AcDbLine
 10
27.877
 20
-94.6785
 11
27.877
 21
-79.6925
  0
ARC
  5
740
100
AcDbEntity
  8
BLACK
  6
ByLayer
 62
  256
370
   -1
100
AcDbCircle
 10
28.067
 20
-79.6925
 40
0.1905
100
AcDbArc
 50
0
 51
180
  0
ARC
  5
741
100
AcDbEntity
  8
BLACK
  6
ByLayer
 62
  256
370
   -1
100
AcDbCircle
 10
28.067
 20
-94.6785
 40
0.1905
100
AcDbArc
 50
180
 51
0
  0
LINE
  5
742
100
AcDbEntity
  8
BLACK
  6
ByLayer
 62
  256
370
   -1
100
AcDbLine
 10
28.067
 20
-94.8695
 11
43.053
 21
-94.8695
  0
LINE
  5
743
100
AcDbEntity
  8
BLACK
  6
ByLayer
 62
  256
370
   -1
100
AcDbLine
 10
28.067
 20
-94.4885
 11
43.053
 21
-94.4885
  0
ARC
  5
744
100
AcDbEntity
  8
BLACK
  6
ByLayer
 62
  256
370
   -1
100
AcDbCircle
 10
43.053
 20
-94.6785
 40
0.1905
100
AcDbArc
 50
270
 51
90
  0
ARC
  5
745
100
AcDbEntity
  8
BLACK
  6
ByLayer
 62
  256
370
   -1
100
AcDbCircle
 10
28.067
 20
-94.6785
 40
0.1905
100
AcDbArc
 50
90
 51
270
  0
LINE
  5
746
100
AcDbEntity
  8
BLACK
  6
ByLayer
 62
  256
370
   -1
100
AcDbLine
 10
6.985
 20
-86.3605
 11
14.097
 21
-86.3605
  0
LINE
  5
747
100
AcDbEntity
  8
BLACK
  6
ByLayer
 62
  256
370
   -1
100
AcDbLine
 10
6.985
 20
-85.9795
 11
14.097
 21
-85.9795
  0
ARC
  5
748
100
AcDbEntity
  8
BLACK
  6
ByLayer
 62
  256
370
   -1
100
AcDbCircle
 10
14.097
 20
-86.1695
 40
0.1905
100
AcDbArc
 50
270
 51
90
  0
ARC
  5
749
100
AcDbEntity
  8
BLACK
  6
ByLayer
 62
  256
370
   -1
100
AcDbCircle
 10
6.985
 20
-86.1695
 40
0.1905
100
AcDbArc
 50
90
 51
270
  0
LINE
  5
74A
100
AcDbEntity
  8
BLACK
  6
ByLayer
 62
  256
370
   -1
100
AcDbLine
 10
14.288
 20
-88.0745
 11
14.288
 21
-86.1695
  0
LINE
  5
74B
100
AcDbEntity
  8
BLACK
  6
ByLayer
 62
  256
370
   -1
100
AcDbLine
 10
13.907
 20
-88.0745
 11
13.907
 21
-86.1695
  0
ARC
  5
74C
100
AcDbEntity
  8
BLACK
  6
ByLayer
 62
  256
370
   -1
100
AcDbCircle
 10
14.097
 20
-86.1695
 40
0.1905
100
AcDbArc
 50
0
 51
180
  0
ARC
  5
74D
100
AcDbEntity
  8
BLACK
  6
ByLayer
 62
  256
370
   -1
100
AcDbCircle
 10
14.097
 20
-88.0745
 40
0.1905
100
AcDbArc
 50
180
 51
0
  0
LINE
  5
74E
100
AcDbEntity
  8
BLACK
  6
ByLayer
 62
  256
370
   -1
100
AcDbLine
 10
14.288
 20
-88.2015
 11
14.288
 21
-88.0745
  0
LINE
  5
74F
100
AcDbEntity
  8
BLACK
  6
ByLayer
 62
  256
370
   -1
100
AcDbLine
 10
13.907
 20
-88.2015
 11
13.907
 21
-88.0745
  0
ARC
  5
750
100
AcDbEntity
  8
BLACK
  6
ByLayer
 62
  256
370
   -1
100
AcDbCircle
 10
14.097
 20
-88.0745
 40
0.1905
100
AcDbArc
 50
0
 51
180
  0
ARC
  5
751
100
AcDbEntity
  8
BLACK
  6
ByLayer
 62
  256
370
   -1
100
AcDbCircle
 10
14.097
 20
-88.2015
 40
0.1905
100
AcDbArc
 50
180
 51
0
  0
LINE
  5
752
100
AcDbEntity
  8
BLACK
  6
ByLayer
 62
  256
370
   -1
100
AcDbLine
 10
6.985
 20
-88.3925
 11
14.097
 21
-88.3925
  0
LINE
  5
753
100
AcDbEntity
  8
BLACK
  6
ByLayer
 62
  256
370
   -1
100
AcDbLine
 10
6.985
 20
-88.0115
 11
14.097
 21
-88.0115
  0
ARC
  5
754
100
AcDbEntity
  8
BLACK
  6
ByLayer
 62
  256
370
   -1
100
AcDbCircle
 10
14.097
 20
-88.2015
 40
0.1905
100
AcDbArc
 50
270
 51
90
  0
ARC
  5
755
100
AcDbEntity
  8
BLACK
  6
ByLayer
 62
  256
370
   -1
100
AcDbCircle
 10
6.985
 20
-88.2015
 40
0.1905
100
AcDbArc
 50
90
 51
270
  0
LINE
  5
756
100
AcDbEntity
  8
BLACK
  6
ByLayer
 62
  256
370
   -1
100
AcDbLine
 10
7.176
 20
-88.2015
 11
7.176
 21
-86.1695
  0
LINE
  5
757
100
AcDbEntity
  8
BLACK
  6
ByLayer
 62
  256
370
   -1
100
AcDbLine
 10
6.795
 20
-88.2015
 11
6.795
 21
-86.1695
  0
ARC
  5
758
100
AcDbEntity
  8
BLACK
  6
ByLayer
 62
  256
370
   -1
100
AcDbCircle
 10
6.985
 20
-86.1695
 40
0.1905
100
AcDbArc
 50
0
 51
180
  0
ARC
  5
759
100
AcDbEntity
  8
BLACK
  6
ByLayer
 62
  256
370
   -1
100
AcDbCircle
 10
6.985
 20
-88.2015
 40
0.1905
100
AcDbArc
 50
180
 51
0
  0
LINE
  5
75A
100
AcDbEntity
  8
BLACK
  6
ByLayer
 62
  256
370
   -1
100
AcDbLine
 10
5.969
 20
-94.2345
 11
15.113
 21
-94.2345
  0
LINE
  5
75B
100
AcDbEntity
  8
BLACK
  6
ByLayer
 62
  256
370
   -1
100
AcDbLine
 10
5.969
 20
-93.8535
 11
15.113
 21
-93.8535
  0
ARC
  5
75C
100
AcDbEntity
  8
BLACK
  6
ByLayer
 62
  256
370
   -1
100
AcDbCircle
 10
15.113
 20
-94.04349999999999
 40
0.1905
100
AcDbArc
 50
270
 51
90
  0
ARC
  5
75D
100
AcDbEntity
  8
BLACK
  6
ByLayer
 62
  256
370
   -1
100
AcDbCircle
 10
5.969
 20
-94.04349999999999
 40
0.1905
100
AcDbArc
 50
90
 51
270
  0
LINE
  5
75E
100
AcDbEntity
  8
BLACK
  6
ByLayer
 62
  256
370
   -1
100
AcDbLine
 10
5.969
 20
-80.5185
 11
15.113
 21
-80.5185
  0
LINE
  5
75F
100
AcDbEntity
  8
BLACK
  6
ByLayer
 62
  256
370
   -1
100
AcDbLine
 10
5.969
 20
-80.1375
 11
15.113
 21
-80.1375
  0
ARC
  5
760
100
AcDbEntity
  8
BLACK
  6
ByLayer
 62
  256
370
   -1
100
AcDbCircle
 10
15.113
 20
-80.3275
 40
0.1905
100
AcDbArc
 50
270
 51
90
  0
ARC
  5
761
100
AcDbEntity
  8
BLACK
  6
ByLayer
 62
  256
370
   -1
100
AcDbCircle
 10
5.969
 20
-80.3275
 40
0.1905
100
AcDbArc
 50
90
 51
270
  0
LINE
  5
762
100
AcDbEntity
  8
BLACK
  6
ByLayer
 62
  256
370
   -1
100
AcDbLine
 10
15.304
 20
-80.7085
 11
15.304
 21
-79.81950000000001
  0
LINE
  5
763
100
AcDbEntity
  8
BLACK
  6
ByLayer
 62
  256
370
   -1
100
AcDbLine
 10
14.923
 20
-80.7085
 11
14.923
 21
-79.81950000000001
  0
ARC
  5
764
100
AcDbEntity
  8
BLACK
  6
ByLayer
 62
  256
370
   -1
100
AcDbCircle
 10
15.113
 20
-79.81950000000001
 40
0.1905
100
AcDbArc
 50
0
 51
180
  0
ARC
  5
765
100
AcDbEntity
  8
BLACK
  6
ByLayer
 62
  256
370
   -1
100
AcDbCircle
 10
15.113
 20
-80.7085
 40
0.1905
100
AcDbArc
 50
180
 51
0
  0
LINE
  5
766
100
AcDbEntity
  8
BLACK
  6
ByLayer
 62
  256
370
   -1
100
AcDbLine
 10
16.764
 20
-82.8045
 11
18.034
 21
-82.8045
  0
LINE
  5
767
100
AcDbEntity
  8
BLACK
  6
ByLayer
 62
  256
370
   -1
100
AcDbLine
 10
16.764
 20
-82.4235
 11
18.034
 21
-82.4235
  0
ARC
  5
768
100
AcDbEntity
  8
BLACK
  6
ByLayer
 62
  256
370
   -1
100
AcDbCircle
 10
18.034
 20
-82.6135
 40
0.1905
100
AcDbArc
 50
270
 51
90
  0
ARC
  5
769
100
AcDbEntity
  8
BLACK
  6
ByLayer
 62
  256
370
   -1
100
AcDbCircle
 10
16.764
 20
-82.6135
 40
0.1905
100
AcDbArc
 50
90
 51
270
  0
LINE
  5
76A
100
AcDbEntity
  8
BLACK
  6
ByLayer
 62
  256
370
   -1
100
AcDbLine
 10
6.16
 20
-80.8355
 11
6.16
 21
-79.6925
  0
LINE
  5
76B
100
AcDbEntity
  8
BLACK
  6
ByLayer
 62
  256
370
   -1
100
AcDbLine
 10
5.779
 20
-80.8355
 11
5.779
 21
-79.6925
  0
ARC
  5
76C
100
AcDbEntity
  8
BLACK
  6
ByLayer
 62
  256
370
   -1
100
AcDbCircle
 10
5.969
 20
-79.6925
 40
0.1905
100
AcDbArc
 50
0
 51
180
  0
ARC
  5
76D
100
AcDbEntity
  8
BLACK
  6
ByLayer
 62
  256
370
   -1
100
AcDbCircle
 10
5.969
 20
-80.8355
 40
0.1905
100
AcDbArc
 50
180
 51
0
  0
LINE
  5
76E
100
AcDbEntity
  8
BLACK
  6
ByLayer
 62
  256
370
   -1
100
AcDbLine
 10
3.048
 20
-82.8045
 11
4.191
 21
-82.8045
  0
LINE
  5
76F
100
AcDbEntity
  8
BLACK
  6
ByLayer
 62
  256
370
   -1
100
AcDbLine
 10
3.048
 20
-82.4235
 11
4.191
 21
-82.4235
  0
ARC
  5
770
100
AcDbEntity
  8
BLACK
  6
ByLayer
 62
  256
370
   -1
100
AcDbCircle
 10
4.191
 20
-82.6135
 40
0.1905
100
AcDbArc
 50
270
 51
90
  0
ARC
  5
771
100
AcDbEntity
  8
BLACK
  6
ByLayer
 62
  256
370
   -1
100
AcDbCircle
 10
3.048
 20
-82.6135
 40
0.1905
100
AcDbArc
 50
90
 51
270
  0
LINE
  5
772
100
AcDbEntity
  8
BLACK
  6
ByLayer
 62
  256
370
   -1
100
AcDbLine
 10
3.048
 20
-91.9485
 11
4.191
 21
-91.9485
  0
LINE
  5
773
100
AcDbEntity
  8
BLACK
  6
ByLayer
 62
  256
370
   -1
100
AcDbLine
 10
3.048
 20
-91.5675
 11
4.191
 21
-91.5675
  0
ARC
  5
774
100
AcDbEntity
  8
BLACK
  6
ByLayer
 62
  256
370
   -1
100
AcDbCircle
 10
4.191
 20
-91.75749999999999
 40
0.1905
100
AcDbArc
 50
270
 51
90
  0
ARC
  5
775
100
AcDbEntity
  8
BLACK
  6
ByLayer
 62
  256
370
   -1
100
AcDbCircle
 10
3.048
 20
-91.75749999999999
 40
0.1905
100
AcDbArc
 50
90
 51
270
  0
LINE
  5
776
100
AcDbEntity
  8
BLACK
  6
ByLayer
 62
  256
370
   -1
100
AcDbLine
 10
6.16
 20
-94.6785
 11
6.16
 21
-93.5355
  0
LINE
  5
777
100
AcDbEntity
  8
BLACK
  6
ByLayer
 62
  256
370
   -1
100
AcDbLine
 10
5.779
 20
-94.6785
 11
5.779
 21
-93.5355
  0
ARC
  5
778
100
AcDbEntity
  8
BLACK
  6
ByLayer
 62
  256
370
   -1
100
AcDbCircle
 10
5.969
 20
-93.5355
 40
0.1905
100
AcDbArc
 50
0
 51
180
  0
ARC
  5
779
100
AcDbEntity
  8
BLACK
  6
ByLayer
 62
  256
370
   -1
100
AcDbCircle
 10
5.969
 20
-94.6785
 40
0.1905
100
AcDbArc
 50
180
 51
0
  0
LINE
  5
77A
100
AcDbEntity
  8
BLACK
  6
ByLayer
 62
  256
370
   -1
100
AcDbLine
 10
16.891
 20
-91.9485
 11
18.034
 21
-91.9485
  0
LINE
  5
77B
100
AcDbEntity
  8
BLACK
  6
ByLayer
 62
  256
370
   -1
100
AcDbLine
 10
16.891
 20
-91.5675
 11
18.034
 21
-91.5675
  0
ARC
  5
77C
100
AcDbEntity
  8
BLACK
  6
ByLayer
 62
  256
370
   -1
100
AcDbCircle
 10
18.034
 20
-91.75749999999999
 40
0.1905
100
AcDbArc
 50
270
 51
90
  0
ARC
  5
77D
100
AcDbEntity
  8
BLACK
  6
ByLayer
 62
  256
370
   -1
100
AcDbCircle
 10
16.891
 20
-91.75749999999999
 40
0.1905
100
AcDbArc
 50
90
 51
270
  0
LINE
  5
77E
100
AcDbEntity
  8
BLACK
  6
ByLayer
 62
  256
370
   -1
100
AcDbLine
 10
15.304
 20
-94.6785
 11
15.304
 21
-93.5355
  0
LINE
  5
77F
100
AcDbEntity
  8
BLACK
  6
ByLayer
 62
  256
370
   -1
100
AcDbLine
 10
14.923
 20
-94.6785
 11
14.923
 21
-93.5355
  0
ARC
  5
780
100
AcDbEntity
  8
BLACK
  6
ByLayer
 62
  256
370
   -1
100
AcDbCircle
 10
15.113
 20
-93.5355
 40
0.1905
100
AcDbArc
 50
0
 51
180
  0
ARC
  5
781
100
AcDbEntity
  8
BLACK
  6
ByLayer
 62
  256
370
   -1
100
AcDbCircle
 10
15.113
 20
-94.6785
 40
0.1905
100
AcDbArc
 50
180
 51
0
  0
ARC
  5
782
100
AcDbEntity
  8
BLACK
  6
ByLayer
 62
  256
370
   -1
100
AcDbCircle
 10
16.891
 20
-93.5355
 40
1.778
100
AcDbArc
 50
90
 51
180
  0
ARC
  5
783
100
AcDbEntity
  8
BLACK
  6
ByLayer
 62
  256
370
   -1
100
AcDbCircle
 10
4.191
 20
-93.5355
 40
1.778
100
AcDbArc
 50
0
 51
90
  0
ARC
  5
784
100
AcDbEntity
  8
BLACK
  6
ByLayer
 62
  256
370
   -1
100
AcDbCircle
 10
16.891
 20
-80.8355
 40
1.78253
100
AcDbArc
 50
175.9
 51
265.9
  0
ARC
  5
785
100
AcDbEntity
  8
BLACK
  6
ByLayer
 62
  256
370
   -1
100
AcDbCircle
 10
4.191
 20
-80.8355
 40
1.778
100
AcDbArc
 50
270
 51
0
  0
LINE
  5
786
100
AcDbEntity
  8
BLACK
  6
ByLayer
 62
  256
370
   -1
100
AcDbLine
 10
18.225
 20
-94.6785
 11
18.225
 21
-79.6925
  0
LINE
  5
787
100
AcDbEntity
  8
BLACK
  6
ByLayer
 62
  256
370
   -1
100
AcDbLine
 10
17.844
 20
-94.6785
 11
17.844
 21
-79.6925
  0
ARC
  5
788
100
AcDbEntity
  8
BLACK
  6
ByLayer
 62
  256
370
   -1
100
AcDbCircle
 10
18.034
 20
-79.6925
 40
0.1905
100
AcDbArc
 50
0
 51
180
  0
ARC
  5
789
100
AcDbEntity
  8
BLACK
  6
ByLayer
 62
  256
370
   -1
100
AcDbCircle
 10
18.034
 20
-94.6785
 40
0.1905
100
AcDbArc
 50
180
 51
0
  0
LINE
  5
78A
100
AcDbEntity
  8
BLACK
  6
ByLayer
 62
  256
370
   -1
100
AcDbLine
 10
3.048
 20
-79.8835
 11
18.034
 21
-79.8835
  0
LINE
  5
78B
100
AcDbEntity
  8
BLACK
  6
ByLayer
 62
  256
370
   -1
100
AcDbLine
 10
3.048
 20
-79.5025
 11
18.034
 21
-79.5025
  0
ARC
  5
78C
100
AcDbEntity
  8
BLACK
  6
ByLayer
 62
  256
370
   -1
100
AcDbCircle
 10
18.034
 20
-79.6925
 40
0.1905
100
AcDbArc
 50
270
 51
90
  0
ARC
  5
78D
100
AcDbEntity
  8
BLACK
  6
ByLayer
 62
  256
370
   -1
100
AcDbCircle
 10
3.048
 20
-79.6925
 40
0.1905
100
AcDbArc
 50
90
 51
270
  0
LINE
  5
78E
100
AcDbEntity
  8
BLACK
  6
ByLayer
 62
  256
370
   -1
100
AcDbLine
 10
3.239
 20
-94.6785
 11
3.239
 21
-79.6925
  0
LINE
  5
78F
100
AcDbEntity
  8
BLACK
  6
ByLayer
 62
  256
370
   -1
100
AcDbLine
 10
2.858
 20
-94.6785
 11
2.858
 21
-79.6925
  0
ARC
  5
790
100
AcDbEntity
  8
BLACK
  6
ByLayer
 62
  256
370
   -1
100
AcDbCircle
 10
3.048
 20
-79.6925
 40
0.1905
100
AcDbArc
 50
0
 51
180
  0
ARC
  5
791
100
AcDbEntity
  8
BLACK
  6
ByLayer
 62
  256
370
   -1
100
AcDbCircle
 10
3.048
 20
-94.6785
 40
0.1905
100
AcDbArc
 50
180
 51
0
  0
LINE
  5
792
100
AcDbEntity
  8
BLACK
  6
ByLayer
 62
  256
370
   -1
100
AcDbLine
 10
3.048
 20
-94.8695
 11
18.034
 21
-94.8695
  0
LINE
  5
793
100
AcDbEntity
  8
BLACK
  6
ByLayer
 62
  256
370
   -1
100
AcDbLine
 10
3.048
 20
-94.4885
 11
18.034
 21
-94.4885
  0
ARC
  5
794
100
AcDbEntity
  8
BLACK
  6
ByLayer
 62
  256
370
   -1
100
AcDbCircle
 10
18.034
 20
-94.6785
 40
0.1905
100
AcDbArc
 50
270
 51
90
  0
ARC
  5
795
100
AcDbEntity
  8
BLACK
  6
ByLayer
 62
  256
370
   -1
100
AcDbCircle
 10
3.048
 20
-94.6785
 40
0.1905
100
AcDbArc
 50
90
 51
270
  0
LINE
  5
796
100
AcDbEntity
  8
BLACK
  6
ByLayer
 62
  256
370
   -1
100
AcDbLine
 10
80.491
 20
-0.1905
 11
80.491
 21
4.1275
  0
LINE
  5
797
100
AcDbEntity
  8
BLACK
  6
ByLayer
 62
  256
370
   -1
100
AcDbLine
 10
80.291
 20
-0.1905
 11
80.291
 21
4.1275
  0
ARC
  5
798
100
AcDbEntity
  8
BLACK
  6
ByLayer
 62
  256
370
   -1
100
AcDbCircle
 10
80.39100000000001
 20
4.1275
 40
0.10033
100
AcDbArc
 50
0
 51
180
  0
ARC
  5
799
100
AcDbEntity
  8
BLACK
  6
ByLayer
 62
  256
370
   -1
100
AcDbCircle
 10
80.39100000000001
 20
-0.1905
 40
0.10033
100
AcDbArc
 50
180
 51
0
  0
LINE
  5
79A
100
AcDbEntity
  8
BLACK
  6
ByLayer
 62
  256
370
   -1
100
AcDbLine
 10
61.595
 20
4.0272
 11
80.39100000000001
 21
4.0272
  0
LINE
  5
79B
100
AcDbEntity
  8
BLACK
  6
ByLayer
 62
  256
370
   -1
100
AcDbLine
 10
61.595
 20
4.2278
 11
80.39100000000001
 21
4.2278
  0
ARC
  5
79C
100
AcDbEntity
  8
BLACK
  6
ByLayer
 62
  256
370
   -1
100
AcDbCircle
 10
80.39100000000001
 20
4.1275
 40
0.10033
100
AcDbArc
 50
270
 51
90
  0
ARC
  5
79D
100
AcDbEntity
  8
BLACK
  6
ByLayer
 62
  256
370
   -1
100
AcDbCircle
 10
61.595
 20
4.1275
 40
0.10033
100
AcDbArc
 50
90
 51
270
  0
LINE
  5
79E
100
AcDbEntity
  8
BLACK
  6
ByLayer
 62
  256
370
   -1
100
AcDbLine
 10
61.695
 20
-0.1905
 11
61.695
 21
4.1275
  0
LINE
  5
79F
100
AcDbEntity
  8
BLACK
  6
ByLayer
 62
  256
370
   -1
100
AcDbLine
 10
61.495
 20
-0.1905
 11
61.495
 21
4.1275
  0
ARC
  5
7A0
100
AcDbEntity
  8
BLACK
  6
ByLayer
 62
  256
370
   -1
100
AcDbCircle
 10
61.595
 20
4.1275
 40
0.10033
100
AcDbArc
 50
0
 51
180
  0
ARC
  5
7A1
100
AcDbEntity
  8
BLACK
  6
ByLayer
 62
  256
370
   -1
100
AcDbCircle
 10
61.595
 20
-0.1905
 40
0.10033
100
AcDbArc
 50
180
 51
0
  0
LINE
  5
7A2
100
AcDbEntity
  8
BLACK
  6
ByLayer
 62
  256
370
   -1
100
AcDbLine
 10
65.63200000000001
 20
-13.0175
 11
65.63200000000001
 21
-6.2865
  0
LINE
  5
7A3
100
AcDbEntity
  8
BLACK
  6
ByLayer
 62
  256
370
   -1
100
AcDbLine
 10
65.432
 20
-13.0175
 11
65.432
 21
-6.2865
  0
ARC
  5
7A4
100
AcDbEntity
  8
BLACK
  6
ByLayer
 62
  256
370
   -1
100
AcDbCircle
 10
65.532
 20
-6.2865
 40
0.10033
100
AcDbArc
 50
0
 51
180
  0
ARC
  5
7A5
100
AcDbEntity
  8
BLACK
  6
ByLayer
 62
  256
370
   -1
100
AcDbCircle
 10
65.532
 20
-13.0175
 40
0.10033
100
AcDbArc
 50
180
 51
0
  0
LINE
  5
7A6
100
AcDbEntity
  8
BLACK
  6
ByLayer
 62
  256
370
   -1
100
AcDbLine
 10
68.426
 20
-13.1445
 11
68.426
 21
-6.2865
  0
LINE
  5
7A7
100
AcDbEntity
  8
BLACK
  6
ByLayer
 62
  256
370
   -1
100
AcDbLine
 10
68.226
 20
-13.1445
 11
68.226
 21
-6.2865
  0
ARC
  5
7A8
100
AcDbEntity
  8
BLACK
  6
ByLayer
 62
  256
370
   -1
100
AcDbCircle
 10
68.32599999999999
 20
-6.2865
 40
0.10033
100
AcDbArc
 50
0
 51
180
  0
ARC
  5
7A9
100
AcDbEntity
  8
BLACK
  6
ByLayer
 62
  256
370
   -1
100
AcDbCircle
 10
68.32599999999999
 20
-13.1445
 40
0.10033
100
AcDbArc
 50
180
 51
0
  0
LINE
  5
7AA
100
AcDbEntity
  8
BLACK
  6
ByLayer
 62
  256
370
   -1
100
AcDbLine
 10
67.029
 20
-10.6045
 11
67.029
 21
-6.2865
  0
LINE
  5
7AB
100
AcDbEntity
  8
BLACK
  6
ByLayer
 62
  256
370
   -1
100
AcDbLine
 10
66.82899999999999
 20
-10.6045
 11
66.82899999999999
 21
-6.2865
  0
ARC
  5
7AC
100
AcDbEntity
  8
BLACK
  6
ByLayer
 62
  256
370
   -1
100
AcDbCircle
 10
66.929
 20
-6.2865
 40
0.10033
100
AcDbArc
 50
0
 51
180
  0
ARC
  5
7AD
100
AcDbEntity
  8
BLACK
  6
ByLayer
 62
  256
370
   -1
100
AcDbCircle
 10
66.929
 20
-10.6045
 40
0.10033
100
AcDbArc
 50
180
 51
0
  0
LINE
  5
7AE
100
AcDbEntity
  8
BLACK
  6
ByLayer
 62
  256
370
   -1
100
AcDbLine
 10
69.696
 20
-10.6045
 11
69.696
 21
-6.2865
  0
LINE
  5
7AF
100
AcDbEntity
  8
BLACK
  6
ByLayer
 62
  256
370
   -1
100
AcDbLine
 10
69.496
 20
-10.6045
 11
69.496
 21
-6.2865
  0
ARC
  5
7B0
100
AcDbEntity
  8
BLACK
  6
ByLayer
 62
  256
370
   -1
100
AcDbCircle
 10
69.596
 20
-6.2865
 40
0.10033
100
AcDbArc
 50
0
 51
180
  0
ARC
  5
7B1
100
AcDbEntity
  8
BLACK
  6
ByLayer
 62
  256
370
   -1
100
AcDbCircle
 10
69.596
 20
-10.6045
 40
0.10033
100
AcDbArc
 50
180
 51
0
  0
LINE
  5
7B2
100
AcDbEntity
  8
BLACK
  6
ByLayer
 62
  256
370
   -1
100
AcDbLine
 10
71.093
 20
-13.1445
 11
71.093
 21
-6.2865
  0
LINE
  5
7B3
100
AcDbEntity
  8
BLACK
  6
ByLayer
 62
  256
370
   -1
100
AcDbLine
 10
70.893
 20
-13.1445
 11
70.893
 21
-6.2865
  0
ARC
  5
7B4
100
AcDbEntity
  8
BLACK
  6
ByLayer
 62
  256
370
   -1
100
AcDbCircle
 10
70.99299999999999
 20
-6.2865
 40
0.10033
100
AcDbArc
 50
0
 51
180
  0
ARC
  5
7B5
100
AcDbEntity
  8
BLACK
  6
ByLayer
 62
  256
370
   -1
100
AcDbCircle
 10
70.99299999999999
 20
-13.1445
 40
0.10033
100
AcDbArc
 50
180
 51
0
  0
LINE
  5
7B6
100
AcDbEntity
  8
BLACK
  6
ByLayer
 62
  256
370
   -1
100
AcDbLine
 10
72.48999999999999
 20
-10.6045
 11
72.48999999999999
 21
-6.2865
  0
LINE
  5
7B7
100
AcDbEntity
  8
BLACK
  6
ByLayer
 62
  256
370
   -1
100
AcDbLine
 10
72.29000000000001
 20
-10.6045
 11
72.29000000000001
 21
-6.2865
  0
ARC
  5
7B8
100
AcDbEntity
  8
BLACK
  6
ByLayer
 62
  256
370
   -1
100
AcDbCircle
 10
72.39
 20
-6.2865
 40
0.10033
100
AcDbArc
 50
0
 51
180
  0
ARC
  5
7B9
100
AcDbEntity
  8
BLACK
  6
ByLayer
 62
  256
370
   -1
100
AcDbCircle
 10
72.39
 20
-10.6045
 40
0.10033
100
AcDbArc
 50
180
 51
0
  0
LINE
  5
7BA
100
AcDbEntity
  8
BLACK
  6
ByLayer
 62
  256
370
   -1
100
AcDbLine
 10
73.76000000000001
 20
-13.1445
 11
73.76000000000001
 21
-6.2865
  0
LINE
  5
7BB
100
AcDbEntity
  8
BLACK
  6
ByLayer
 62
  256
370
   -1
100
AcDbLine
 10
73.56
 20
-13.1445
 11
73.56
 21
-6.2865
  0
ARC
  5
7BC
100
AcDbEntity
  8
BLACK
  6
ByLayer
 62
  256
370
   -1
100
AcDbCircle
 10
73.66
 20
-6.2865
 40
0.10033
100
AcDbArc
 50
0
 51
180
  0
ARC
  5
7BD
100
AcDbEntity
  8
BLACK
  6
ByLayer
 62
  256
370
   -1
100
AcDbCircle
 10
73.66
 20
-13.1445
 40
0.10033
100
AcDbArc
 50
180
 51
0
  0
LINE
  5
7BE
100
AcDbEntity
  8
BLACK
  6
ByLayer
 62
  256
370
   -1
100
AcDbLine
 10
75.157
 20
-10.7315
 11
75.157
 21
-6.2865
  0
LINE
  5
7BF
100
AcDbEntity
  8
BLACK
  6
ByLayer
 62
  256
370
   -1
100
AcDbLine
 10
74.95699999999999
 20
-10.7315
 11
74.95699999999999
 21
-6.2865
  0
ARC
  5
7C0
100
AcDbEntity
  8
BLACK
  6
ByLayer
 62
  256
370
   -1
100
AcDbCircle
 10
75.057
 20
-6.2865
 40
0.10033
100
AcDbArc
 50
0
 51
180
  0
ARC
  5
7C1
100
AcDbEntity
  8
BLACK
  6
ByLayer
 62
  256
370
   -1
100
AcDbCircle
 10
75.057
 20
-10.7315
 40
0.10033
100
AcDbArc
 50
180
 51
0
  0
LINE
  5
7C2
100
AcDbEntity
  8
BLACK
  6
ByLayer
 62
  256
370
   -1
100
AcDbLine
 10
76.554
 20
-13.1445
 11
76.554
 21
-6.2865
  0
LINE
  5
7C3
100
AcDbEntity
  8
BLACK
  6
ByLayer
 62
  256
370
   -1
100
AcDbLine
 10
76.354
 20
-13.1445
 11
76.354
 21
-6.2865
  0
ARC
  5
7C4
100
AcDbEntity
  8
BLACK
  6
ByLayer
 62
  256
370
   -1
100
AcDbCircle
 10
76.45399999999999
 20
-6.2865
 40
0.10033
100
AcDbArc
 50
0
 51
180
  0
ARC
  5
7C5
100
AcDbEntity
  8
BLACK
  6
ByLayer
 62
  256
370
   -1
100
AcDbCircle
 10
76.45399999999999
 20
-13.1445
 40
0.10033
100
AcDbArc
 50
180
 51
0
  0
LINE
  5
7C6
100
AcDbEntity
  8
BLACK
  6
ByLayer
 62
  256
370
   -1
100
AcDbLine
 10
80.491
 20
-6.2865
 11
80.491
 21
-4.7625
  0
LINE
  5
7C7
100
AcDbEntity
  8
BLACK
  6
ByLayer
 62
  256
370
   -1
100
AcDbLine
 10
80.291
 20
-6.2865
 11
80.291
 21
-4.7625
  0
ARC
  5
7C8
100
AcDbEntity
  8
BLACK
  6
ByLayer
 62
  256
370
   -1
100
AcDbCircle
 10
80.39100000000001
 20
-4.7625
 40
0.10033
100
AcDbArc
 50
0
 51
180
  0
ARC
  5
7C9
100
AcDbEntity
  8
BLACK
  6
ByLayer
 62
  256
370
   -1
100
AcDbCircle
 10
80.39100000000001
 20
-6.2865
 40
0.10033
100
AcDbArc
 50
180
 51
0
  0
LINE
  5
7CA
100
AcDbEntity
  8
BLACK
  6
ByLayer
 62
  256
370
   -1
100
AcDbLine
 10
61.595
 20
-6.3868
 11
80.39100000000001
 21
-6.3868
  0
LINE
  5
7CB
100
AcDbEntity
  8
BLACK
  6
ByLayer
 62
  256
370
   -1
100
AcDbLine
 10
61.595
 20
-6.1862
 11
80.39100000000001
 21
-6.1862
  0
ARC
  5
7CC
100
AcDbEntity
  8
BLACK
  6
ByLayer
 62
  256
370
   -1
100
AcDbCircle
 10
80.39100000000001
 20
-6.2865
 40
0.10033
100
AcDbArc
 50
270
 51
90
  0
ARC
  5
7CD
100
AcDbEntity
  8
BLACK
  6
ByLayer
 62
  256
370
   -1
100
AcDbCircle
 10
61.595
 20
-6.2865
 40
0.10033
100
AcDbArc
 50
90
 51
270
  0
LINE
  5
7CE
100
AcDbEntity
  8
BLACK
  6
ByLayer
 62
  256
370
   -1
100
AcDbLine
 10
61.695
 20
-6.2865
 11
61.695
 21
-4.7625
  0
LINE
  5
7CF
100
AcDbEntity
  8
BLACK
  6
ByLayer
 62
  256
370
   -1
100
AcDbLine
 10
61.495
 20
-6.2865
 11
61.495
 21
-4.7625
  0
ARC
  5
7D0
100
AcDbEntity
  8
BLACK
  6
ByLayer
 62
  256
370
   -1
100
AcDbCircle
 10
61.595
 20
-4.7625
 40
0.10033
100
AcDbArc
 50
0
 51
180
  0
ARC
  5
7D1
100
AcDbEntity
  8
BLACK
  6
ByLayer
 62
  256
370
   -1
100
AcDbCircle
 10
61.595
 20
-6.2865
 40
0.10033
100
AcDbArc
 50
180
 51
0
  0
LINE
  5
7D2
100
AcDbEntity
  8
BLACK
  6
ByLayer
 62
  256
370
   -1
100
AcDbLine
 10
55.372
 20
-4.8628
 11
86.614
 21
-4.8628
  0
LINE
  5
7D3
100
AcDbEntity
  8
BLACK
  6
ByLayer
 62
  256
370
   -1
100
AcDbLine
 10
55.372
 20
-4.6622
 11
86.614
 21
-4.6622
  0
ARC
  5
7D4
100
AcDbEntity
  8
BLACK
  6
ByLayer
 62
  256
370
   -1
100
AcDbCircle
 10
86.614
 20
-4.7625
 40
0.10033
100
AcDbArc
 50
270
 51
90
  0
ARC
  5
7D5
100
AcDbEntity
  8
BLACK
  6
ByLayer
 62
  256
370
   -1
100
AcDbCircle
 10
55.372
 20
-4.7625
 40
0.10033
100
AcDbArc
 50
90
 51
270
  0
LINE
  5
7D6
100
AcDbEntity
  8
BLACK
  6
ByLayer
 62
  256
370
   -1
100
AcDbLine
 10
55.372
 20
-0.2908
 11
86.614
 21
-0.2908
  0
LINE
  5
7D7
100
AcDbEntity
  8
BLACK
  6
ByLayer
 62
  256
370
   -1
100
AcDbLine
 10
55.372
 20
-0.0902
 11
86.614
 21
-0.0902
  0
ARC
  5
7D8
100
AcDbEntity
  8
BLACK
  6
ByLayer
 62
  256
370
   -1
100
AcDbCircle
 10
86.614
 20
-0.1905
 40
0.10033
100
AcDbArc
 50
270
 51
90
  0
ARC
  5
7D9
100
AcDbEntity
  8
BLACK
  6
ByLayer
 62
  256
370
   -1
100
AcDbCircle
 10
55.372
 20
-0.1905
 40
0.10033
100
AcDbArc
 50
90
 51
270
  0
LINE
  5
7DA
100
AcDbEntity
  8
BLACK
  6
ByLayer
 62
  256
370
   -1
100
AcDbLine
 10
86.714
 20
-15.1765
 11
86.714
 21
-0.1905
  0
LINE
  5
7DB
100
AcDbEntity
  8
BLACK
  6
ByLayer
 62
  256
370
   -1
100
AcDbLine
 10
86.514
 20
-15.1765
 11
86.514
 21
-0.1905
  0
ARC
  5
7DC
100
AcDbEntity
  8
BLACK
  6
ByLayer
 62
  256
370
   -1
100
AcDbCircle
 10
86.614
 20
-0.1905
 40
0.10033
100
AcDbArc
 50
0
 51
180
  0
ARC
  5
7DD
100
AcDbEntity
  8
BLACK
  6
ByLayer
 62
  256
370
   -1
100
AcDbCircle
 10
86.614
 20
-15.1765
 40
0.10033
100
AcDbArc
 50
180
 51
0
  0
LINE
  5
7DE
100
AcDbEntity
  8
BLACK
  6
ByLayer
 62
  256
370
   -1
100
AcDbLine
 10
55.372
 20
-15.2768
 11
86.614
 21
-15.2768
  0
LINE
  5
7DF
100
AcDbEntity
  8
BLACK
  6
ByLayer
 62
  256
370
   -1
100
AcDbLine
 10
55.372
 20
-15.0762
 11
86.614
 21
-15.0762
  0
ARC
  5
7E0
100
AcDbEntity
  8
BLACK
  6
ByLayer
 62
  256
370
   -1
100
AcDbCircle
 10
86.614
 20
-15.1765
 40
0.10033
100
AcDbArc
 50
270
 51
90
  0
ARC
  5
7E1
100
AcDbEntity
  8
BLACK
  6
ByLayer
 62
  256
370
   -1
100
AcDbCircle
 10
55.372
 20
-15.1765
 40
0.10033
100
AcDbArc
 50
90
 51
270
  0
LINE
  5
7E2
100
AcDbEntity
  8
BLACK
  6
ByLayer
 62
  256
370
   -1
100
AcDbLine
 10
55.472
 20
-15.1765
 11
55.472
 21
-0.1905
  0
LINE
  5
7E3
100
AcDbEntity
  8
BLACK
  6
ByLayer
 62
  256
370
   -1
100
AcDbLine
 10
55.272
 20
-15.1765
 11
55.272
 21
-0.1905
  0
ARC
  5
7E4
100
AcDbEntity
  8
BLACK
  6
ByLayer
 62
  256
370
   -1
100
AcDbCircle
 10
55.372
 20
-0.1905
 40
0.10033
100
AcDbArc
 50
0
 51
180
  0
ARC
  5
7E5
100
AcDbEntity
  8
BLACK
  6
ByLayer
 62
  256
370
   -1
100
AcDbCircle
 10
55.372
 20
-15.1765
 40
0.10033
100
AcDbArc
 50
180
 51
0
  0
LINE
  5
7E6
100
AcDbEntity
  8
BLACK
  6
ByLayer
 62
  256
370
   -1
100
AcDbLine
 10
34.517
 20
-114.4905
 11
34.517
 21
-110.1725
  0
LINE
  5
7E7
100
AcDbEntity
  8
BLACK
  6
ByLayer
 62
  256
370
   -1
100
AcDbLine
 10
34.317
 20
-114.4905
 11
34.317
 21
-110.1725
  0
ARC
  5
7E8
100
AcDbEntity
  8
BLACK
  6
ByLayer
 62
  256
370
   -1
100
AcDbCircle
 10
34.417
 20
-110.1725
 40
0.10033
100
AcDbArc
 50
0
 51
180
  0
ARC
  5
7E9
100
AcDbEntity
  8
BLACK
  6
ByLayer
 62
  256
370
   -1
100
AcDbCircle
 10
34.417
 20
-114.4905
 40
0.10033
100
AcDbArc
 50
180
 51
0
  0
LINE
  5
7EA
100
AcDbEntity
  8
BLACK
  6
ByLayer
 62
  256
370
   -1
100
AcDbLine
 10
34.417
 20
-114.5905
 11
61.849
 21
-114.5905
  0
LINE
  5
7EB
100
AcDbEntity
  8
BLACK
  6
ByLayer
 62
  256
370
   -1
100
AcDbLine
 10
34.417
 20
-114.3905
 11
61.849
 21
-114.3905
  0
ARC
  5
7EC
100
AcDbEntity
  8
BLACK
  6
ByLayer
 62
  256
370
   -1
100
AcDbCircle
 10
61.849
 20
-114.4905
 40
0.10033
100
AcDbArc
 50
270
 51
90
  0
ARC
  5
7ED
100
AcDbEntity
  8
BLACK
  6
ByLayer
 62
  256
370
   -1
100
AcDbCircle
 10
34.417
 20
-114.4905
 40
0.10033
100
AcDbArc
 50
90
 51
270
  0
LINE
  5
7EE
100
AcDbEntity
  8
BLACK
  6
ByLayer
 62
  256
370
   -1
100
AcDbLine
 10
61.949
 20
-114.4905
 11
61.949
 21
-110.1725
  0
LINE
  5
7EF
100
AcDbEntity
  8
BLACK
  6
ByLayer
 62
  256
370
   -1
100
AcDbLine
 10
61.749
 20
-114.4905
 11
61.749
 21
-110.1725
  0
ARC
  5
7F0
100
AcDbEntity
  8
BLACK
  6
ByLayer
 62
  256
370
   -1
100
AcDbCircle
 10
61.849
 20
-110.1725
 40
0.10033
100
AcDbArc
 50
0
 51
180
  0
ARC
  5
7F1
100
AcDbEntity
  8
BLACK
  6
ByLayer
 62
  256
370
   -1
100
AcDbCircle
 10
61.849
 20
-114.4905
 40
0.10033
100
AcDbArc
 50
180
 51
0
  0
LINE
  5
7F2
100
AcDbEntity
  8
BLACK
  6
ByLayer
 62
  256
370
   -1
100
AcDbLine
 10
57.885
 20
-104.0765
 11
57.885
 21
-97.21850000000001
  0
LINE
  5
7F3
100
AcDbEntity
  8
BLACK
  6
ByLayer
 62
  256
370
   -1
100
AcDbLine
 10
57.685
 20
-104.0765
 11
57.685
 21
-97.21850000000001
  0
ARC
  5
7F4
100
AcDbEntity
  8
BLACK
  6
ByLayer
 62
  256
370
   -1
100
AcDbCircle
 10
57.785
 20
-97.21850000000001
 40
0.10033
100
AcDbArc
 50
0
 51
180
  0
ARC
  5
7F5
100
AcDbEntity
  8
BLACK
  6
ByLayer
 62
  256
370
   -1
100
AcDbCircle
 10
57.785
 20
-104.0765
 40
0.10033
100
AcDbArc
 50
180
 51
0
  0
LINE
  5
7F6
100
AcDbEntity
  8
BLACK
  6
ByLayer
 62
  256
370
   -1
100
AcDbLine
 10
56.488
 20
-104.0765
 11
56.488
 21
-99.7585
  0
LINE
  5
7F7
100
AcDbEntity
  8
BLACK
  6
ByLayer
 62
  256
370
   -1
100
AcDbLine
 10
56.288
 20
-104.0765
 11
56.288
 21
-99.7585
  0
ARC
  5
7F8
100
AcDbEntity
  8
BLACK
  6
ByLayer
 62
  256
370
   -1
100
AcDbCircle
 10
56.388
 20
-99.7585
 40
0.10033
100
AcDbArc
 50
0
 51
180
  0
ARC
  5
7F9
100
AcDbEntity
  8
BLACK
  6
ByLayer
 62
  256
370
   -1
100
AcDbCircle
 10
56.388
 20
-104.0765
 40
0.10033
100
AcDbArc
 50
180
 51
0
  0
LINE
  5
7FA
100
AcDbEntity
  8
BLACK
  6
ByLayer
 62
  256
370
   -1
100
AcDbLine
 10
55.091
 20
-104.0765
 11
55.091
 21
-97.21850000000001
  0
LINE
  5
7FB
100
AcDbEntity
  8
BLACK
  6
ByLayer
 62
  256
370
   -1
100
AcDbLine
 10
54.891
 20
-104.0765
 11
54.891
 21
-97.21850000000001
  0
ARC
  5
7FC
100
AcDbEntity
  8
BLACK
  6
ByLayer
 62
  256
370
   -1
100
AcDbCircle
 10
54.991
 20
-97.21850000000001
 40
0.10033
100
AcDbArc
 50
0
 51
180
  0
ARC
  5
7FD
100
AcDbEntity
  8
BLACK
  6
ByLayer
 62
  256
370
   -1
100
AcDbCircle
 10
54.991
 20
-104.0765
 40
0.10033
100
AcDbArc
 50
180
 51
0
  0
LINE
  5
7FE
100
AcDbEntity
  8
BLACK
  6
ByLayer
 62
  256
370
   -1
100
AcDbLine
 10
53.694
 20
-104.0765
 11
53.694
 21
-99.7585
  0
LINE
  5
7FF
100
AcDbEntity
  8
BLACK
  6
ByLayer
 62
  256
370
   -1
100
AcDbLine
 10
53.494
 20
-104.0765
 11
53.494
 21
-99.7585
  0
ARC
  5
800
100
AcDbEntity
  8
BLACK
  6
ByLayer
 62
  256
370
   -1
100
AcDbCircle
 10
53.594
 20
-99.7585
 40
0.10033
100
AcDbArc
 50
0
 51
180
  0
ARC
  5
801
100
AcDbEntity
  8
BLACK
  6
ByLayer
 62
  256
370
   -1
100
AcDbCircle
 10
53.594
 20
-104.0765
 40
0.10033
100
AcDbArc
 50
180
 51
0
  0
LINE
  5
802
100
AcDbEntity
  8
BLACK
  6
ByLayer
 62
  256
370
   -1
100
AcDbLine
 10
52.297
 20
-104.0765
 11
52.297
 21
-97.21850000000001
  0
LINE
  5
803
100
AcDbEntity
  8
BLACK
  6
ByLayer
 62
  256
370
   -1
100
AcDbLine
 10
52.097
 20
-104.0765
 11
52.097
 21
-97.21850000000001
  0
ARC
  5
804
100
AcDbEntity
  8
BLACK
  6
ByLayer
 62
  256
370
   -1
100
AcDbCircle
 10
52.197
 20
-97.21850000000001
 40
0.10033
100
AcDbArc
 50
0
 51
180
  0
ARC
  5
805
100
AcDbEntity
  8
BLACK
  6
ByLayer
 62
  256
370
   -1
100
AcDbCircle
 10
52.197
 20
-104.0765
 40
0.10033
100
AcDbArc
 50
180
 51
0
  0
LINE
  5
806
100
AcDbEntity
  8
BLACK
  6
ByLayer
 62
  256
370
   -1
100
AcDbLine
 10
51.027
 20
-104.0765
 11
51.027
 21
-99.7585
  0
LINE
  5
807
100
AcDbEntity
  8
BLACK
  6
ByLayer
 62
  256
370
   -1
100
AcDbLine
 10
50.827
 20
-104.0765
 11
50.827
 21
-99.7585
  0
ARC
  5
808
100
AcDbEntity
  8
BLACK
  6
ByLayer
 62
  256
370
   -1
100
AcDbCircle
 10
50.927
 20
-99.7585
 40
0.10033
100
AcDbArc
 50
0
 51
180
  0
ARC
  5
809
100
AcDbEntity
  8
BLACK
  6
ByLayer
 62
  256
370
   -1
100
AcDbCircle
 10
50.927
 20
-104.0765
 40
0.10033
100
AcDbArc
 50
180
 51
0
  0
LINE
  5
80A
100
AcDbEntity
  8
BLACK
  6
ByLayer
 62
  256
370
   -1
100
AcDbLine
 10
49.63
 20
-104.0765
 11
49.63
 21
-97.21850000000001
  0
LINE
  5
80B
100
AcDbEntity
  8
BLACK
  6
ByLayer
 62
  256
370
   -1
100
AcDbLine
 10
49.43
 20
-104.0765
 11
49.43
 21
-97.21850000000001
  0
ARC
  5
80C
100
AcDbEntity
  8
BLACK
  6
ByLayer
 62
  256
370
   -1
100
AcDbCircle
 10
49.53
 20
-97.21850000000001
 40
0.10033
100
AcDbArc
 50
0
 51
180
  0
ARC
  5
80D
100
AcDbEntity
  8
BLACK
  6
ByLayer
 62
  256
370
   -1
100
AcDbCircle
 10
49.53
 20
-104.0765
 40
0.10033
100
AcDbArc
 50
180
 51
0
  0
LINE
  5
80E
100
AcDbEntity
  8
BLACK
  6
ByLayer
 62
  256
370
   -1
100
AcDbLine
 10
48.233
 20
-104.0765
 11
48.233
 21
-99.7585
  0
LINE
  5
80F
100
AcDbEntity
  8
BLACK
  6
ByLayer
 62
  256
370
   -1
100
AcDbLine
 10
48.033
 20
-104.0765
 11
48.033
 21
-99.7585
  0
ARC
  5
810
100
AcDbEntity
  8
BLACK
  6
ByLayer
 62
  256
370
   -1
100
AcDbCircle
 10
48.133
 20
-99.7585
 40
0.10033
100
AcDbArc
 50
0
 51
180
  0
ARC
  5
811
100
AcDbEntity
  8
BLACK
  6
ByLayer
 62
  256
370
   -1
100
AcDbCircle
 10
48.133
 20
-104.0765
 40
0.10033
100
AcDbArc
 50
180
 51
0
  0
LINE
  5
812
100
AcDbEntity
  8
BLACK
  6
ByLayer
 62
  256
370
   -1
100
AcDbLine
 10
46.836
 20
-104.0765
 11
46.836
 21
-97.21850000000001
  0
LINE
  5
813
100
AcDbEntity
  8
BLACK
  6
ByLayer
 62
  256
370
   -1
100
AcDbLine
 10
46.636
 20
-104.0765
 11
46.636
 21
-97.21850000000001
  0
ARC
  5
814
100
AcDbEntity
  8
BLACK
  6
ByLayer
 62
  256
370
   -1
100
AcDbCircle
 10
46.736
 20
-97.21850000000001
 40
0.10033
100
AcDbArc
 50
0
 51
180
  0
ARC
  5
815
100
AcDbEntity
  8
BLACK
  6
ByLayer
 62
  256
370
   -1
100
AcDbCircle
 10
46.736
 20
-104.0765
 40
0.10033
100
AcDbArc
 50
180
 51
0
  0
LINE
  5
816
100
AcDbEntity
  8
BLACK
  6
ByLayer
 62
  256
370
   -1
100
AcDbLine
 10
45.439
 20
-104.0765
 11
45.439
 21
-99.7585
  0
LINE
  5
817
100
AcDbEntity
  8
BLACK
  6
ByLayer
 62
  256
370
   -1
100
AcDbLine
 10
45.239
 20
-104.0765
 11
45.239
 21
-99.7585
  0
ARC
  5
818
100
AcDbEntity
  8
BLACK
  6
ByLayer
 62
  256
370
   -1
100
AcDbCircle
 10
45.339
 20
-99.7585
 40
0.10033
100
AcDbArc
 50
0
 51
180
  0
ARC
  5
819
100
AcDbEntity
  8
BLACK
  6
ByLayer
 62
  256
370
   -1
100
AcDbCircle
 10
45.339
 20
-104.0765
 40
0.10033
100
AcDbArc
 50
180
 51
0
  0
LINE
  5
81A
100
AcDbEntity
  8
BLACK
  6
ByLayer
 62
  256
370
   -1
100
AcDbLine
 10
44.169
 20
-104.0765
 11
44.169
 21
-97.21850000000001
  0
LINE
  5
81B
100
AcDbEntity
  8
BLACK
  6
ByLayer
 62
  256
370
   -1
100
AcDbLine
 10
43.969
 20
-104.0765
 11
43.969
 21
-97.21850000000001
  0
ARC
  5
81C
100
AcDbEntity
  8
BLACK
  6
ByLayer
 62
  256
370
   -1
100
AcDbCircle
 10
44.069
 20
-97.21850000000001
 40
0.10033
100
AcDbArc
 50
0
 51
180
  0
ARC
  5
81D
100
AcDbEntity
  8
BLACK
  6
ByLayer
 62
  256
370
   -1
100
AcDbCircle
 10
44.069
 20
-104.0765
 40
0.10033
100
AcDbArc
 50
180
 51
0
  0
LINE
  5
81E
100
AcDbEntity
  8
BLACK
  6
ByLayer
 62
  256
370
   -1
100
AcDbLine
 10
42.772
 20
-104.0765
 11
42.772
 21
-99.7585
  0
LINE
  5
81F
100
AcDbEntity
  8
BLACK
  6
ByLayer
 62
  256
370
   -1
100
AcDbLine
 10
42.572
 20
-104.0765
 11
42.572
 21
-99.7585
  0
ARC
  5
820
100
AcDbEntity
  8
BLACK
  6
ByLayer
 62
  256
370
   -1
100
AcDbCircle
 10
42.672
 20
-99.7585
 40
0.10033
100
AcDbArc
 50
0
 51
180
  0
ARC
  5
821
100
AcDbEntity
  8
BLACK
  6
ByLayer
 62
  256
370
   -1
100
AcDbCircle
 10
42.672
 20
-104.0765
 40
0.10033
100
AcDbArc
 50
180
 51
0
  0
LINE
  5
822
100
AcDbEntity
  8
BLACK
  6
ByLayer
 62
  256
370
   -1
100
AcDbLine
 10
41.375
 20
-104.0765
 11
41.375
 21
-97.21850000000001
  0
LINE
  5
823
100
AcDbEntity
  8
BLACK
  6
ByLayer
 62
  256
370
   -1
100
AcDbLine
 10
41.175
 20
-104.0765
 11
41.175
 21
-97.21850000000001
  0
ARC
  5
824
100
AcDbEntity
  8
BLACK
  6
ByLayer
 62
  256
370
   -1
100
AcDbCircle
 10
41.275
 20
-97.21850000000001
 40
0.10033
100
AcDbArc
 50
0
 51
180
  0
ARC
  5
825
100
AcDbEntity
  8
BLACK
  6
ByLayer
 62
  256
370
   -1
100
AcDbCircle
 10
41.275
 20
-104.0765
 40
0.10033
100
AcDbArc
 50
180
 51
0
  0
LINE
  5
826
100
AcDbEntity
  8
BLACK
  6
ByLayer
 62
  256
370
   -1
100
AcDbLine
 10
39.978
 20
-104.0765
 11
39.978
 21
-99.7585
  0
LINE
  5
827
100
AcDbEntity
  8
BLACK
  6
ByLayer
 62
  256
370
   -1
100
AcDbLine
 10
39.778
 20
-104.0765
 11
39.778
 21
-99.7585
  0
ARC
  5
828
100
AcDbEntity
  8
BLACK
  6
ByLayer
 62
  256
370
   -1
100
AcDbCircle
 10
39.878
 20
-99.7585
 40
0.10033
100
AcDbArc
 50
0
 51
180
  0
ARC
  5
829
100
AcDbEntity
  8
BLACK
  6
ByLayer
 62
  256
370
   -1
100
AcDbCircle
 10
39.878
 20
-104.0765
 40
0.10033
100
AcDbArc
 50
180
 51
0
  0
LINE
  5
82A
100
AcDbEntity
  8
BLACK
  6
ByLayer
 62
  256
370
   -1
100
AcDbLine
 10
38.581
 20
-104.0765
 11
38.581
 21
-97.21850000000001
  0
LINE
  5
82B
100
AcDbEntity
  8
BLACK
  6
ByLayer
 62
  256
370
   -1
100
AcDbLine
 10
38.381
 20
-104.0765
 11
38.381
 21
-97.21850000000001
  0
ARC
  5
82C
100
AcDbEntity
  8
BLACK
  6
ByLayer
 62
  256
370
   -1
100
AcDbCircle
 10
38.481
 20
-97.21850000000001
 40
0.10033
100
AcDbArc
 50
0
 51
180
  0
ARC
  5
82D
100
AcDbEntity
  8
BLACK
  6
ByLayer
 62
  256
370
   -1
100
AcDbCircle
 10
38.481
 20
-104.0765
 40
0.10033
100
AcDbArc
 50
180
 51
0
  0
LINE
  5
82E
100
AcDbEntity
  8
BLACK
  6
ByLayer
 62
  256
370
   -1
100
AcDbLine
 10
34.517
 20
-105.6005
 11
34.517
 21
-104.0765
  0
LINE
  5
82F
100
AcDbEntity
  8
BLACK
  6
ByLayer
 62
  256
370
   -1
100
AcDbLine
 10
34.317
 20
-105.6005
 11
34.317
 21
-104.0765
  0
ARC
  5
830
100
AcDbEntity
  8
BLACK
  6
ByLayer
 62
  256
370
   -1
100
AcDbCircle
 10
34.417
 20
-104.0765
 40
0.10033
100
AcDbArc
 50
0
 51
180
  0
ARC
  5
831
100
AcDbEntity
  8
BLACK
  6
ByLayer
 62
  256
370
   -1
100
AcDbCircle
 10
34.417
 20
-105.6005
 40
0.10033
100
AcDbArc
 50
180
 51
0
  0
LINE
  5
832
100
AcDbEntity
  8
BLACK
  6
ByLayer
 62
  256
370
   -1
100
AcDbLine
 10
34.417
 20
-104.1765
 11
61.849
 21
-104.1765
  0
LINE
  5
833
100
AcDbEntity
  8
BLACK
  6
ByLayer
 62
  256
370
   -1
100
AcDbLine
 10
34.417
 20
-103.9765
 11
61.849
 21
-103.9765
  0
ARC
  5
834
100
AcDbEntity
  8
BLACK
  6
ByLayer
 62
  256
370
   -1
100
AcDbCircle
 10
61.849
 20
-104.0765
 40
0.10033
100
AcDbArc
 50
270
 51
90
  0
ARC
  5
835
100
AcDbEntity
  8
BLACK
  6
ByLayer
 62
  256
370
   -1
100
AcDbCircle
 10
34.417
 20
-104.0765
 40
0.10033
100
AcDbArc
 50
90
 51
270
  0
LINE
  5
836
100
AcDbEntity
  8
BLACK
  6
ByLayer
 62
  256
370
   -1
100
AcDbLine
 10
61.949
 20
-105.6005
 11
61.949
 21
-104.0765
  0
LINE
  5
837
100
AcDbEntity
  8
BLACK
  6
ByLayer
 62
  256
370
   -1
100
AcDbLine
 10
61.749
 20
-105.6005
 11
61.749
 21
-104.0765
  0
ARC
  5
838
100
AcDbEntity
  8
BLACK
  6
ByLayer
 62
  256
370
   -1
100
AcDbCircle
 10
61.849
 20
-104.0765
 40
0.10033
100
AcDbArc
 50
0
 51
180
  0
ARC
  5
839
100
AcDbEntity
  8
BLACK
  6
ByLayer
 62
  256
370
   -1
100
AcDbCircle
 10
61.849
 20
-105.6005
 40
0.10033
100
AcDbArc
 50
180
 51
0
  0
LINE
  5
83A
100
AcDbEntity
  8
BLACK
  6
ByLayer
 62
  256
370
   -1
100
AcDbLine
 10
28.448
 20
-95.2865
 11
67.818
 21
-95.2865
  0
LINE
  5
83B
100
AcDbEntity
  8
BLACK
  6
ByLayer
 62
  256
370
   -1
100
AcDbLine
 10
28.448
 20
-95.0865
 11
67.818
 21
-95.0865
  0
ARC
  5
83C
100
AcDbEntity
  8
BLACK
  6
ByLayer
 62
  256
370
   -1
100
AcDbCircle
 10
67.818
 20
-95.1865
 40
0.10033
100
AcDbArc
 50
270
 51
90
  0
ARC
  5
83D
100
AcDbEntity
  8
BLACK
  6
ByLayer
 62
  256
370
   -1
100
AcDbCircle
 10
28.448
 20
-95.1865
 40
0.10033
100
AcDbArc
 50
90
 51
270
  0
LINE
  5
83E
100
AcDbEntity
  8
BLACK
  6
ByLayer
 62
  256
370
   -1
100
AcDbLine
 10
28.448
 20
-110.2725
 11
67.818
 21
-110.2725
  0
LINE
  5
83F
100
AcDbEntity
  8
BLACK
  6
ByLayer
 62
  256
370
   -1
100
AcDbLine
 10
28.448
 20
-110.0725
 11
67.818
 21
-110.0725
  0
ARC
  5
840
100
AcDbEntity
  8
BLACK
  6
ByLayer
 62
  256
370
   -1
100
AcDbCircle
 10
67.818
 20
-110.1725
 40
0.10033
100
AcDbArc
 50
270
 51
90
  0
ARC
  5
841
100
AcDbEntity
  8
BLACK
  6
ByLayer
 62
  256
370
   -1
100
AcDbCircle
 10
28.448
 20
-110.1725
 40
0.10033
100
AcDbArc
 50
90
 51
270
  0
LINE
  5
842
100
AcDbEntity
  8
BLACK
  6
ByLayer
 62
  256
370
   -1
100
AcDbLine
 10
28.448
 20
-105.7005
 11
67.818
 21
-105.7005
  0
LINE
  5
843
100
AcDbEntity
  8
BLACK
  6
ByLayer
 62
  256
370
   -1
100
AcDbLine
 10
28.448
 20
-105.5005
 11
67.818
 21
-105.5005
  0
ARC
  5
844
100
AcDbEntity
  8
BLACK
  6
ByLayer
 62
  256
370
   -1
100
AcDbCircle
 10
67.818
 20
-105.6005
 40
0.10033
100
AcDbArc
 50
270
 51
90
  0
ARC
  5
845
100
AcDbEntity
  8
BLACK
  6
ByLayer
 62
  256
370
   -1
100
AcDbCircle
 10
28.448
 20
-105.6005
 40
0.10033
100
AcDbArc
 50
90
 51
270
  0
LINE
  5
846
100
AcDbEntity
  8
BLACK
  6
ByLayer
 62
  256
370
   -1
100
AcDbLine
 10
28.548
 20
-110.1725
 11
28.548
 21
-95.1865
  0
LINE
  5
847
100
AcDbEntity
  8
BLACK
  6
ByLayer
 62
  256
370
   -1
100
AcDbLine
 10
28.348
 20
-110.1725
 11
28.348
 21
-95.1865
  0
ARC
  5
848
100
AcDbEntity
  8
BLACK
  6
ByLayer
 62
  256
370
   -1
100
AcDbCircle
 10
28.448
 20
-95.1865
 40
0.10033
100
AcDbArc
 50
0
 51
180
  0
ARC
  5
849
100
AcDbEntity
  8
BLACK
  6
ByLayer
 62
  256
370
   -1
100
AcDbCircle
 10
28.448
 20
-110.1725
 40
0.10033
100
AcDbArc
 50
180
 51
0
  0
LINE
  5
84A
100
AcDbEntity
  8
BLACK
  6
ByLayer
 62
  256
370
   -1
100
AcDbLine
 10
67.91800000000001
 20
-110.1725
 11
67.91800000000001
 21
-95.1865
  0
LINE
  5
84B
100
AcDbEntity
  8
BLACK
  6
ByLayer
 62
  256
370
   -1
100
AcDbLine
 10
67.718
 20
-110.1725
 11
67.718
 21
-95.1865
  0
ARC
  5
84C
100
AcDbEntity
  8
BLACK
  6
ByLayer
 62
  256
370
   -1
100
AcDbCircle
 10
67.818
 20
-95.1865
 40
0.10033
100
AcDbArc
 50
0
 51
180
  0
ARC
  5
84D
100
AcDbEntity
  8
BLACK
  6
ByLayer
 62
  256
370
   -1
100
AcDbCircle
 10
67.818
 20
-110.1725
 40
0.10033
100
AcDbArc
 50
180
 51
0
  0
LINE
  5
84E
100
AcDbEntity
  8
0
  6
ByLayer
 62
  256
370
   -1
100
AcDbLine
 10
-3.56385
 20
-106.7515
 11
-4.506513708
 21
-107.694123944
  0
LINE
  5
84F
100
AcDbEntity
  8
0
  6
ByLayer
 62
  256
370
   -1
100
AcDbLine
 10
99.57599999999999
 20
-106.7515
 11
100.518807286
 21
-107.694307287
  0
LINE
  5
850
100
AcDbEntity
  8
0
  6
ByLayer
 62
  256
370
   -1
100
AcDbLine
 10
-3.62735
 20
-3.5483
 11
-4.50641285979
 21
-2.66927489533
  0
LINE
  5
851
100
AcDbEntity
  8
0
  6
ByLayer
 62
  256
370
   -1
100
AcDbLine
 10
99.6395
 20
-3.5483
 11
100.518707457
 21
-2.66909254253
  0
LINE
  5
852
100
AcDbEntity
  8
Hilfslinien
  6
ByLayer
 62
  256
370
   -1
100
AcDbLine
 10
-7.1755
 20
4.443618932
 11
-7.16385
 21
4.443618932
  0
LINE
  5
853
100
AcDbEntity
  8
Hilfslinien
  6
ByLayer
 62
  256
370
   -1
100
AcDbLine
 10
-6.99504847839
 20
4.81825016733
 11
-6.99504847839
 21
4.44352316733
  0
ENDBLK
  5
75
330
73
100
AcDbEntity
  8
0
100
AcDbBlockEnd
  0
BLOCK
  5
77
330
76
100
AcDbEntity
  8
0
100
AcDbBlockBegin
  2
Unterteil
 70
    0
 10
0
 20
0
  3
Unterteil
  1

  0
MTEXT
  5
854
100
AcDbEntity
  8
Symbol (ANSI)
  6
ByLayer
 62
  256
370
   -1
100
AcDbMText
 10
55.0012869536
 20
170
 30
0
 40
8.466670000000001
 41
164.6296987987456
 71
    2
 72
    1
  1
Top View Looking Inside Box \Pwith buttons
  7
textstyle2
210
0
220
0
230
1
 50
0
 73
    1
 44
0.84934656
  0
LINE
  5
855
100
AcDbEntity
  8
0
  6
ByLayer
 62
  256
370
   -1
100
AcDbLine
 10
9.85304847802
 20
35.4754567185
 11
9.653048478020001
 21
35.4754567185
  0
LINE
  5
856
100
AcDbEntity
  8
0
  6
ByLayer
 62
  256
370
   -1
100
AcDbLine
 10
10.0568415922
 20
35.8792498327
 11
10.0568415922
 21
35.6792498327
  0
LINE
  5
857
100
AcDbEntity
  8
0
  6
ByLayer
 62
  256
370
   -1
100
AcDbLine
 10
26.436048478
 20
99.6242498327
 11
26.236048478
 21
99.6242498327
  0
LINE
  5
858
100
AcDbEntity
  8
0
  6
ByLayer
 62
  256
370
   -1
100
AcDbLine
 10
10.868548478
 20
99.6242498327
 11
10.668548478
 21
99.6242498327
  0
LINE
  5
859
100
AcDbEntity
  8
0
  6
ByLayer
 62
  256
370
   -1
100
AcDbLine
 10
26.436048478
 20
84.6382498327
 11
26.236048478
 21
84.6382498327
  0
LINE
  5
85A
100
AcDbEntity
  8
0
  6
ByLayer
 62
  256
370
   -1
100
AcDbLine
 10
26.045048478
 20
100.014749833
 11
26.045048478
 21
99.8147498327
  0
LINE
  5
85B
100
AcDbEntity
  8
0
  6
ByLayer
 62
  256
370
   -1
100
AcDbLine
 10
11.0590485513
 20
100.014749833
 11
11.0590485513
 21
99.8147498327
  0
CIRCLE
  5
85C
100
AcDbEntity
  8
Visible (ANSI)
  6
ByLayer
 62
  256
370
   -1
100
AcDbCircle
 10
-0.248713046588
 20
4.74999999973
 40
1.321
  0
CIRCLE
  5
85D
100
AcDbEntity
  8
Visible (ANSI)
  6
ByLayer
 62
  256
370
   -1
100
AcDbCircle
 10
-0.248713046588
 20
4.74999999973
 40
1.925
  0
ELLIPSE
  5
85E
100
AcDbEntity
  8
Visible (ANSI)
  6
ByLayer
 62
  256
370
   -1
100
AcDbEllipse
 10
111.000900768
 20
9.500386184730001
 30
0
 11
1.06120625016
 21
-1.06120625016
 31
0
 40
0.999485417293
 41
5.49804450135
 42
7.06832611301
  0
ELLIPSE
  5
85F
100
AcDbEntity
  8
Visible (ANSI)
  6
ByLayer
 62
  256
370
   -1
100
AcDbEllipse
 10
105.500900768
 20
4.00038618473
 30
0
 11
1.06120625016
 21
-1.06120625016
 31
0
 40
0.999485417293
 41
5.49804450135
 42
7.06832611301
  0
ELLIPSE
  5
860
100
AcDbEntity
  8
Visible (ANSI)
  6
ByLayer
 62
  256
370
   -1
100
AcDbEllipse
 10
4.50167313882
 20
4.00038618473
 30
0
 11
-1.06120625016
 21
-1.06120625016
 31
0
 40
0.999485417293
 41
5.49804450135
 42
7.06832611301
  0
ELLIPSE
  5
861
100
AcDbEntity
  8
Visible (ANSI)
  6
ByLayer
 62
  256
370
   -1
100
AcDbEllipse
 10
-0.998326861172
 20
9.500386184730001
 30
0
 11
-1.06120625016
 21
-1.06120625016
 31
0
 40
0.999485417293
 41
5.49804450135
 42
7.06832611301
  0
ELLIPSE
  5
862
100
AcDbEntity
  8
Visible (ANSI)
  6
ByLayer
 62
  256
370
   -1
100
AcDbEllipse
 10
4.50167313882
 20
115.999613814
 30
0
 11
-1.06120625016
 21
1.06120625016
 31
0
 40
0.999485417293
 41
5.49804450135
 42
7.06832611301
  0
ELLIPSE
  5
863
100
AcDbEntity
  8
Visible (ANSI)
  6
ByLayer
 62
  256
370
   -1
100
AcDbEllipse
 10
105.500900768
 20
115.999613814
 30
0
 11
1.06120625016
 21
1.06120625016
 31
0
 40
0.999485417293
 41
5.49804450135
 42
7.06832611301
  0
ELLIPSE
  5
864
100
AcDbEntity
  8
Visible (ANSI)
  6
ByLayer
 62
  256
370
   -1
100
AcDbEllipse
 10
111.000900768
 20
110.499613814
 30
0
 11
1.06120625016
 21
1.06120625016
 31
0
 40
0.999485417293
 41
5.49804450135
 42
7.06832611301
  0
ELLIPSE
  5
865
100
AcDbEntity
  8
Visible (ANSI)
  6
ByLayer
 62
  256
370
   -1
100
AcDbEllipse
 10
-0.998326861172
 20
110.499613814
 30
0
 11
-1.06120625016
 21
1.06120625016
 31
0
 40
0.999485417293
 41
5.49804450135
 42
7.06832611301
  0
LINE
  5
866
100
AcDbEntity
  8
Visible (ANSI)
  6
ByLayer
 62
  256
370
   -1
100
AcDbLine
 10
111.001673039
 20
7.99999999973
 11
108.751286953
 21
7.99999999973
  0
ARC
  5
867
100
AcDbEntity
  8
Visible (ANSI)
  6
ByLayer
 62
  256
370
   -1
100
AcDbCircle
 10
108.751286953
 20
6.24999999973
 40
1.75
100
AcDbArc
 50
90
 51
180
  0
LINE
  5
868
100
AcDbEntity
  8
Visible (ANSI)
  6
ByLayer
 62
  256
370
   -1
100
AcDbLine
 10
107.001286953
 20
6.24999999973
 11
107.001286953
 21
3.99961391373
  0
LINE
  5
869
100
AcDbEntity
  8
Visible (ANSI)
  6
ByLayer
 62
  256
370
   -1
100
AcDbLine
 10
105.501673039
 20
2.49999999973
 11
4.50090086739
 21
2.49999999973
  0
LINE
  5
86A
100
AcDbEntity
  8
Visible (ANSI)
  6
ByLayer
 62
  256
370
   -1
100
AcDbLine
 10
3.00128695341
 20
3.99961391373
 11
3.00128695341
 21
6.24999999973
  0
ARC
  5
86B
100
AcDbEntity
  8
Visible (ANSI)
  6
ByLayer
 62
  256
370
   -1
100
AcDbCircle
 10
1.25128695341
 20
6.24999999973
 40
1.75
100
AcDbArc
 50
0
 51
90
  0
LINE
  5
86C
100
AcDbEntity
  8
Visible (ANSI)
  6
ByLayer
 62
  256
370
   -1
100
AcDbLine
 10
1.25128695341
 20
7.99999999973
 11
-0.999099132604
 21
7.99999999973
  0
LINE
  5
86D
100
AcDbEntity
  8
Visible (ANSI)
  6
ByLayer
 62
  256
370
   -1
100
AcDbLine
 10
-2.49871304659
 20
9.49961391373
 11
-2.49871304659
 21
110.500386086
  0
LINE
  5
86E
100
AcDbEntity
  8
Visible (ANSI)
  6
ByLayer
 62
  256
370
   -1
100
AcDbLine
 10
3.00128695341
 20
113.75
 11
3.00128695341
 21
116.000386086
  0
LINE
  5
86F
100
AcDbEntity
  8
Visible (ANSI)
  6
ByLayer
 62
  256
370
   -1
100
AcDbLine
 10
4.50090086739
 20
117.5
 11
105.501673039
 21
117.5
  0
LINE
  5
870
100
AcDbEntity
  8
Visible (ANSI)
  6
ByLayer
 62
  256
370
   -1
100
AcDbLine
 10
108.751286953
 20
112
 11
111.001673039
 21
112
  0
LINE
  5
871
100
AcDbEntity
  8
Visible (ANSI)
  6
ByLayer
 62
  256
370
   -1
100
AcDbLine
 10
112.501286953
 20
110.500386086
 11
112.501286953
 21
9.49961391373
  0
ARC
  5
872
100
AcDbEntity
  8
Visible (ANSI)
  6
ByLayer
 62
  256
370
   -1
100
AcDbCircle
 10
1.25128695341
 20
113.75
 40
1.75
100
AcDbArc
 50
270
 51
0
  0
LINE
  5
873
100
AcDbEntity
  8
Visible (ANSI)
  6
ByLayer
 62
  256
370
   -1
100
AcDbLine
 10
-0.999099132604
 20
112
 11
1.25128695341
 21
112
  0
ARC
  5
874
100
AcDbEntity
  8
Visible (ANSI)
  6
ByLayer
 62
  256
370
   -1
100
AcDbCircle
 10
108.751286953
 20
113.75
 40
1.75
100
AcDbArc
 50
180
 51
270
  0
LINE
  5
875
100
AcDbEntity
  8
Visible (ANSI)
  6
ByLayer
 62
  256
370
   -1
100
AcDbLine
 10
107.001286953
 20
116.000386086
 11
107.001286953
 21
113.75
  0
ELLIPSE
  5
876
100
AcDbEntity
  8
Visible (ANSI)
  6
ByLayer
 62
  256
370
   -1
100
AcDbEllipse
 10
0.00257423813287
 20
5.00128728473
 30
0
 11
-3.53735416722
 21
-3.53735416722
 31
0
 40
0.9994854172929999
 41
5.49804450135
 42
7.06832611301
  0
ELLIPSE
  5
877
100
AcDbEntity
  8
Visible (ANSI)
  6
ByLayer
 62
  256
370
   -1
100
AcDbEllipse
 10
109.999999669
 20
5.00128728473
 30
0
 11
3.53735416722
 21
-3.53735416722
 31
0
 40
0.9994854172929999
 41
5.49804450135
 42
7.06832611301
  0
ELLIPSE
  5
878
100
AcDbEntity
  8
Visible (ANSI)
  6
ByLayer
 62
  256
370
   -1
100
AcDbEllipse
 10
109.999999669
 20
114.998712715
 30
0
 11
3.53735416722
 21
3.53735416722
 31
0
 40
0.9994854172929999
 41
5.49804450135
 42
7.06832611301
  0
ELLIPSE
  5
879
100
AcDbEntity
  8
Visible (ANSI)
  6
ByLayer
 62
  256
370
   -1
100
AcDbEllipse
 10
0.00257423813287
 20
114.998712715
 30
0
 11
-3.53735416722
 21
3.53735416722
 31
0
 40
0.9994854172929999
 41
5.49804450135
 42
7.06832611301
  0
LINE
  5
87A
100
AcDbEntity
  8
Visible (ANSI)
  6
ByLayer
 62
  256
370
   -1
100
AcDbLine
 10
-4.99871304659
 20
115.001286953
 11
-4.99871304659
 21
4.99871304673
  0
LINE
  5
87B
100
AcDbEntity
  8
Visible (ANSI)
  6
ByLayer
 62
  256
370
   -1
100
AcDbLine
 10
2.50111e-11
 20
-2.7228e-10
 11
110.002573907
 21
-2.7228e-10
  0
LINE
  5
87C
100
AcDbEntity
  8
Visible (ANSI)
  6
ByLayer
 62
  256
370
   -1
100
AcDbLine
 10
115.001286953
 20
4.99871304673
 11
115.001286953
 21
115.001286953
  0
LINE
  5
87D
100
AcDbEntity
  8
Visible (ANSI)
  6
ByLayer
 62
  256
370
   -1
100
AcDbLine
 10
110.002573907
 20
120
 11
2.47837e-11
 21
120
  0
LINE
  5
87E
100
AcDbEntity
  8
Center Mark (ANSI)
  6
CONTINUOUS
 62
  256
370
   -1
100
AcDbLine
 10
3.34295362007
 20
4.74999999973
 11
-3.84037971326
 21
4.74999999973
  0
LINE
  5
87F
100
AcDbEntity
  8
Center Mark (ANSI)
  6
CONTINUOUS
 62
  256
370
   -1
100
AcDbLine
 10
-0.248713046588
 20
8.341666666729999
 11
-0.248713046588
 21
1.15833333273
  0
LINE
  5
880
100
AcDbEntity
  8
Center Mark (ANSI)
  6
CONTINUOUS
 62
  256
370
   -1
100
AcDbLine
 10
3.34295362007
 20
115.25
 11
-3.84037971326
 21
115.25
  0
LINE
  5
881
100
AcDbEntity
  8
Center Mark (ANSI)
  6
CONTINUOUS
 62
  256
370
   -1
100
AcDbLine
 10
-0.248713046588
 20
118.841666666
 11
-0.248713046588
 21
111.658333333
  0
LINE
  5
882
100
AcDbEntity
  8
Center Mark (ANSI)
  6
CONTINUOUS
 62
  256
370
   -1
100
AcDbLine
 10
113.84295362
 20
4.74999999973
 11
106.659620287
 21
4.74999999973
  0
LINE
  5
883
100
AcDbEntity
  8
Center Mark (ANSI)
  6
CONTINUOUS
 62
  256
370
   -1
100
AcDbLine
 10
110.251286953
 20
8.341666666729999
 11
110.251286953
 21
1.15833333273
  0
LINE
  5
884
100
AcDbEntity
  8
Center Mark (ANSI)
  6
CONTINUOUS
 62
  256
370
   -1
100
AcDbLine
 10
113.84295362
 20
115.25
 11
106.659620287
 21
115.25
  0
LINE
  5
885
100
AcDbEntity
  8
Center Mark (ANSI)
  6
CONTINUOUS
 62
  256
370
   -1
100
AcDbLine
 10
110.251286953
 20
118.841666666
 11
110.251286953
 21
111.658333333
  0
CIRCLE
  5
886
100
AcDbEntity
  8
Visible (ANSI)
  6
ByLayer
 62
  256
370
   -1
100
AcDbCircle
 10
110.251286953
 20
4.74999999973
 40
1.321
  0
CIRCLE
  5
887
100
AcDbEntity
  8
Visible (ANSI)
  6
ByLayer
 62
  256
370
   -1
100
AcDbCircle
 10
110.251286953
 20
4.74999999973
 40
1.925
  0
CIRCLE
  5
888
100
AcDbEntity
  8
Visible (ANSI)
  6
ByLayer
 62
  256
370
   -1
100
AcDbCircle
 10
-0.248713046588
 20
115.25
 40
1.321
  0
CIRCLE
  5
889
100
AcDbEntity
  8
Visible (ANSI)
  6
ByLayer
 62
  256
370
   -1
100
AcDbCircle
 10
-0.248713046588
 20
115.25
 40
1.925
  0
CIRCLE
  5
88A
100
AcDbEntity
  8
Visible (ANSI)
  6
ByLayer
 62
  256
370
   -1
100
AcDbCircle
 10
110.251286953
 20
115.25
 40
1.321
  0
CIRCLE
  5
88B
100
AcDbEntity
  8
Visible (ANSI)
  6
ByLayer
 62
  256
370
   -1
100
AcDbCircle
 10
110.251286953
 20
115.25
 40
1.925
  0
ENDBLK
  5
78
330
76
100
AcDbEntity
  8
0
100
AcDbBlockEnd
  0
ENDSEC
  0
SECTION
  2
ENTITIES
  0
INSERT
  5
88C
100
AcDbEntity
  8
0
  6
ByLayer
 62
  256
370
   -1
100
AcDbBlockReference
  2
Quadrat
 10
1054.65176152
 20
360.112249833
 30
0
 41
1
 42
1
 43
0
 50
0
 70
    1
 71
    1
 44
0
 45
0
  0
INSERT
  5
88D
100
AcDbEntity
  8
0
  6
ByLayer
 62
  256
370
   -1
100
AcDbBlockReference
  2
Quadrat
 10
1054.65176152
 20
378.653749833
 30
0
 41
1
 42
1
 43
0
 50
0
 70
    1
 71
    1
 44
0
 45
0
  0
INSERT
  5
88E
100
AcDbEntity
  8
0
  6
ByLayer
 62
  256
370
   -1
100
AcDbBlockReference
  2
Quadrat
 10
1104.68976152
 20
378.653749833
 30
0
 41
1
 42
1
 43
0
 50
0
 70
    1
 71
    1
 44
0
 45
0
  0
INSERT
  5
88F
100
AcDbEntity
  8
0
  6
ByLayer
 62
  256
370
   -1
100
AcDbBlockReference
  2
Quadrat
 10
1054.65176152
 20
397.068749833
 30
0
 41
1
 42
1
 43
0
 50
0
 70
    1
 71
    1
 44
0
 45
0
  0
INSERT
  5
890
100
AcDbEntity
  8
0
  6
ByLayer
 62
  256
370
   -1
100
AcDbBlockReference
  2
Quadrat
 10
1104.68976152
 20
397.068749833
 30
0
 41
1
 42
1
 43
0
 50
0
 70
    1
 71
    1
 44
0
 45
0
  0
INSERT
  5
891
100
AcDbEntity
  8
0
  6
ByLayer
 62
  256
370
   -1
100
AcDbBlockReference
  2
Quadrat
 10
1129.70876152
 20
378.654249833
 30
0
 41
1
 42
1
 43
0
 50
0
 70
    1
 71
    1
 44
0
 45
0
  0
INSERT
  5
892
100
AcDbEntity
  8
0
  6
ByLayer
 62
  256
370
   -1
100
AcDbBlockReference
  2
Quadrat
 10
1079.67076152
 20
397.068749833
 30
0
 41
1
 42
1
 43
0
 50
0
 70
    1
 71
    1
 44
0
 45
0
  0
INSERT
  5
893
100
AcDbEntity
  8
0
  6
ByLayer
 62
  256
370
   -1
100
AcDbBlockReference
  2
Quadrat
 10
1104.68976152
 20
360.111749833
 30
0
 41
1
 42
1
 43
0
 50
0
 70
    1
 71
    1
 44
0
 45
0
  0
INSERT
  5
894
100
AcDbEntity
  8
0
  6
ByLayer
 62
  256
370
   -1
100
AcDbBlockReference
  2
Quadrat
 10
1079.67076152
 20
378.653749833
 30
0
 41
1
 42
1
 43
0
 50
0
 70
    1
 71
    1
 44
0
 45
0
  0
INSERT
  5
895
100
AcDbEntity
  8
0
  6
ByLayer
 62
  256
370
   -1
100
AcDbBlockReference
  2
Quadrat
 10
1079.67076152
 20
360.111749833
 30
0
 41
1
 42
1
 43
0
 50
0
 70
    1
 71
    1
 44
0
 45
0
  0
INSERT
  5
896
100
AcDbEntity
  8
0
  6
ByLayer
 62
  256
370
   -1
100
AcDbBlockReference
  2
Quadrat
 10
1129.70876152
 20
397.068749833
 30
0
 41
1
 42
1
 43
0
 50
0
 70
    1
 71
    1
 44
0
 45
0
  0
INSERT
  5
897
100
AcDbEntity
  8
0
  6
ByLayer
 62
  256
370
   -1
100
AcDbBlockReference
  2
Quadrat
 10
1129.70876152
 20
360.111749833
 30
0
 41
1
 42
1
 43
0
 50
0
 70
    1
 71
    1
 44
0
 45
0
  0
INSERT
  5
898
100
AcDbEntity
  8
0
  6
ByLayer
 62
  256
370
   -1
100
AcDbBlockReference
  2
groß
 10
1055.66776152
 20
424.247749833
 30
0
 41
1
 42
1
 43
0
 50
0
 70
    1
 71
    1
 44
0
 45
0
  0
INSERT
  5
899
100
AcDbEntity
  8
0
  6
ByLayer
 62
  256
370
   -1
100
AcDbBlockReference
  2
groß
 10
1078.6547616
 20
424.247749833
 30
0
 41
1
 42
1
 43
0
 50
0
 70
    1
 71
    1
 44
0
 45
0
  0
INSERT
  5
89A
100
AcDbEntity
  8
0
  6
ByLayer
 62
  256
370
   -1
100
AcDbBlockReference
  2
groß
 10
1105.7057616
 20
424.247749833
 30
0
 41
1
 42
1
 43
0
 50
0
 70
    1
 71
    1
 44
0
 45
0
  0
INSERT
  5
89B
100
AcDbEntity
  8
0
  6
ByLayer
 62
  256
370
   -1
100
AcDbBlockReference
  2
groß
 10
1128.6927616
 20
424.247749833
 30
0
 41
1
 42
1
 43
0
 50
0
 70
    1
 71
    1
 44
0
 45
0
  0
CIRCLE
  5
89C
100
AcDbEntity
  8
0
  6
ByLayer
 62
  256
370
   -1
100
AcDbCircle
 10
1050.08876152
 20
429.972249833
 40
1.75
  0
CIRCLE
  5
89D
100
AcDbEntity
  8
0
  6
ByLayer
 62
  256
370
   -1
100
AcDbCircle
 10
1050.08876152
 20
370.028249833
 40
1.75
  0
CIRCLE
  5
89E
100
AcDbEntity
  8
0
  6
ByLayer
 62
  256
370
   -1
100
AcDbCircle
 10
1150.03776152
 20
429.972249833
 40
1.75
  0
CIRCLE
  5
89F
100
AcDbEntity
  8
0
  6
ByLayer
 62
  256
370
   -1
100
AcDbCircle
 10
1150.03776152
 20
370.028249833
 40
1.75
  0
LINE
  5
8A0
100
AcDbEntity
  8
Center Mark (ANSI)
  6
CONTINUOUS
 62
  256
370
   -1
100
AcDbLine
 10
1048.41537971
 20
344.75
 11
1041.08204638
 21
344.75
  0
LINE
  5
8A1
100
AcDbEntity
  8
Center Mark (ANSI)
  6
CONTINUOUS
 62
  256
370
   -1
100
AcDbLine
 10
1044.74871305
 20
348.416666667
 11
1044.74871305
 21
341.083333334
  0
LINE
  5
8A2
100
AcDbEntity
  8
Center Mark (ANSI)
  6
CONTINUOUS
 62
  256
370
   -1
100
AcDbLine
 10
1048.41537971
 20
455.25
 11
1041.08204638
 21
455.25
  0
LINE
  5
8A3
100
AcDbEntity
  8
Center Mark (ANSI)
  6
CONTINUOUS
 62
  256
370
   -1
100
AcDbLine
 10
1044.74871305
 20
458.916666667
 11
1044.74871305
 21
451.583333334
  0
LINE
  5
8A4
100
AcDbEntity
  8
Center Mark (ANSI)
  6
CONTINUOUS
 62
  256
370
   -1
100
AcDbLine
 10
1158.91537971
 20
344.75
 11
1151.58204638
 21
344.75
  0
LINE
  5
8A5
100
AcDbEntity
  8
Center Mark (ANSI)
  6
CONTINUOUS
 62
  256
370
   -1
100
AcDbLine
 10
1155.24871305
 20
348.416666667
 11
1155.24871305
 21
341.083333334
  0
LINE
  5
8A6
100
AcDbEntity
  8
Center Mark (ANSI)
  6
CONTINUOUS
 62
  256
370
   -1
100
AcDbLine
 10
1158.91537971
 20
455.25
 11
1151.58204638
 21
455.25
  0
LINE
  5
8A7
100
AcDbEntity
  8
Center Mark (ANSI)
  6
CONTINUOUS
 62
  256
370
   -1
100
AcDbLine
 10
1155.24871305
 20
458.916666667
 11
1155.24871305
 21
451.583333334
  0
CIRCLE
  5
8A8
100
AcDbEntity
  8
Visible (ANSI)
  6
ByLayer
 62
  256
370
   -1
100
AcDbCircle
 10
1044.74871305
 20
455.25
 40
2
  0
CIRCLE
  5
8A9
100
AcDbEntity
  8
Visible (ANSI)
  6
ByLayer
 62
  256
370
   -1
100
AcDbCircle
 10
1155.24871305
 20
344.75
 40
2
  0
CIRCLE
  5
8AA
100
AcDbEntity
  8
Visible (ANSI)
  6
ByLayer
 62
  256
370
   -1
100
AcDbCircle
 10
1044.74871305
 20
344.75
 40
2
  0
CIRCLE
  5
8AB
100
AcDbEntity
  8
Visible (ANSI)
  6
ByLayer
 62
  256
370
   -1
100
AcDbCircle
 10
1155.24871305
 20
455.25
 40
2
  0
MTEXT
  5
8AC
100
AcDbEntity
  8
Symbol (ANSI)
  6
ByLayer
 62
  256
370
   -1
100
AcDbMText
 10
1101.59936678
 20
499.855207775
 30
0
 40
8.46666693687
 41
13.17037079068667
 71
    2
 72
    1
  1
Lid
  7
textstyle3
210
0
220
0
230
1
 50
0
 73
    1
 44
0.9216
  0
LWPOLYLINE
  5
8AD
100
AcDbEntity
  8
0
  6
ByLayer
 62
  256
370
   -1
100
AcDbPolyline
 90
   24
 70
    1
 43
0
 10
1149.30371278
 20
457.2546136430001
 42
-0.4142759930989827
 10
1150.8033267
 20
455.754999729
 10
1150.8033267
 20
455
 42
0.4142135631209993
 10
1154.99871306
 20
450.804613651
 10
1155.75371279
 20
450.804613651
 42
-0.4142759930990021
 10
1157.2533267
 20
449.304999737
 10
1157.2533267
 20
350.695000263
 42
-0.4142759930990021
 10
1155.75371279
 20
349.195386349
 10
1154.99871311
 20
349.195386349
 42
0.4142135670350115
 10
1150.8033267
 20
344.999999929
 10
1150.8033267
 20
344.245000256
 42
-0.4142759930989829
 10
1149.30371278
 20
342.745386342
 10
1050.69371331
 20
342.745386342
 42
-0.4142759930990244
 10
1049.1940994
 20
344.245000256
 10
1049.1940994
 20
345
 42
0.4142135667099939
 10
1044.99871298
 20
349.195386349
 10
1044.24371331
 20
349.195386349
 42
-0.4142759930990021
 10
1042.7440994
 20
350.695000263
 10
1042.7440994
 20
449.304999737
 42
-0.4142759930990021
 10
1044.24371331
 20
450.804613651
 10
1044.99871305
 20
450.804613651
 42
0.4142135623730037
 10
1049.1940994
 20
454.999999995
 10
1049.1940994
 20
455.754999729
 42
-0.4142759930990244
 10
1050.69371331
 20
457.254613643
  0
LWPOLYLINE
  5
8AE
100
AcDbEntity
  8
0
  6
ByLayer
 62
  256
370
   -1
100
AcDbPolyline
 90
   24
 70
    1
 43
0
 10
1149.34909913
 20
457.299999992
 42
-0.4142759930990271
 10
1150.84871305
 20
455.800386078
 10
1150.84871305
 20
455
 42
0.4142135631290062
 10
1154.99871306
 20
450.85
 10
1155.79909914
 20
450.85
 42
-0.4142759930989688
 10
1157.29871305
 20
449.350386086
 10
1157.29871305
 20
350.649613914
 42
-0.4142759930989688
 10
1155.79909914
 20
349.15
 10
1154.99871311
 20
349.15
 42
0.4142135713999943
 10
1150.84871305
 20
344.999999929
 10
1150.84871305
 20
344.199613906
 42
-0.4142759930990162
 10
1149.34909913
 20
342.699999992
 10
1050.64832696
 20
342.6999999920001
 42
-0.4142759930989688
 10
1049.14871305
 20
344.199613906
 10
1049.14871305
 20
344.999999938
 42
0.4142135711210004
 10
1044.99871298
 20
349.15
 10
1044.19832696
 20
349.15
 42
-0.4142759930990134
 10
1042.69871305
 20
350.649613914
 10
1042.69871305
 20
449.350386086
 42
-0.4142759930990132
 10
1044.19832696
 20
450.85
 10
1044.99871305
 20
450.85
 42
0.4142135623730027
 10
1049.14871305
 20
454.999999995
 10
1049.14871305
 20
455.800386078
 42
-0.41427599309898
 10
1050.64832696
 20
457.299999992
  0
LWPOLYLINE
  5
8AF
100
AcDbEntity
  8
0
  6
ByLayer
 62
  256
370
   -1
100
AcDbPolyline
 90
   26
 70
    0
 43
0
 10
1050.59871305
 20
344.6
 42
0.4143513710379788
 10
1051.09858435
 20
344.1
 42
-0.4143513710380887
 10
1050.59871305
 20
344.599871305
 10
1050.59871305
 20
344.599871305
 42
0.4142135623730008
 10
1044.59871305
 20
350.6
 10
1044.59858435
 20
350.6
 42
-0.4142759930990227
 10
1044.09871305
 20
351.099871305
 10
1044.09871305
 20
448.900128696
 42
-0.4142759930980192
 10
1044.59858435
 20
449.4
 10
1044.59871305
 20
449.4
 42
0.4142135623730034
 10
1050.59871305
 20
455.4
 10
1050.59871305
 20
455.400128696
 42
-0.4142759930989187
 10
1051.09858435
 20
455.9
 10
1148.89884174
 20
455.9
 42
-0.4143513710389993
 10
1149.39871305
 20
455.4
 10
1149.39871305
 20
455.4
 42
0.4142135623730034
 10
1155.39884174
 20
449.4
 10
1155.39884174
 20
449.4
 42
-0.4143513710389475
 10
1155.89871305
 20
448.900128696
 10
1155.89871305
 20
351.099871305
 42
-0.4143513710389761
 10
1155.39884174
 20
350.6
 10
1155.39871305
 20
350.6
 42
0.4142135623730036
 10
1149.39871305
 20
344.6
 10
1149.39871305
 20
344.599871305
 42
-0.4142759930990313
 10
1148.89884174
 20
344.1
 10
1051.09858435
 20
344.1
  0
ARC
  5
8B0
100
AcDbEntity
  8
Visible (ANSI)
  6
ByLayer
 62
  256
370
   -1
100
AcDbCircle
 10
1044.99871305
 20
455
 40
5
100
AcDbArc
 50
90
 51
180
  0
LINE
  5
8B1
100
AcDbEntity
  8
Visible (ANSI)
  6
ByLayer
 62
  256
370
   -1
100
AcDbLine
 10
1039.99871305
 20
455
 11
1039.99871305
 21
345
  0
ARC
  5
8B2
100
AcDbEntity
  8
Visible (ANSI)
  6
ByLayer
 62
  256
370
   -1
100
AcDbCircle
 10
1044.99871305
 20
345
 40
5
100
AcDbArc
 50
180
 51
270
  0
LINE
  5
8B3
100
AcDbEntity
  8
Visible (ANSI)
  6
ByLayer
 62
  256
370
   -1
100
AcDbLine
 10
1044.99871305
 20
340
 11
1154.99871305
 21
340
  0
ARC
  5
8B4
100
AcDbEntity
  8
Visible (ANSI)
  6
ByLayer
 62
  256
370
   -1
100
AcDbCircle
 10
1154.99871305
 20
345
 40
5
100
AcDbArc
 50
270
 51
0
  0
LWPOLYLINE
  5
8B5
100
AcDbEntity
  8
0
  6
ByLayer
 62
  256
370
   -1
100
AcDbPolyline
 90
    4
 70
    0
 43
0
 10
1159.99871305
 20
345
 10
1159.99871305
 20
455
 42
0.414213562373095
 10
1154.99871305
 20
460
 10
1044.99871305
 20
460
  0
ENDSEC
  0
SECTION
  2
OBJECTS
  0
DICTIONARY
  5
C
330
0
100
AcDbDictionary
281
    1
  3
ACAD_GROUP
350
D
  0
DICTIONARY
  5
D
330
C
100
AcDbDictionary
281
    1
  0
ENDSEC
  0
EOF
