  0
SECTION
  2
HEADER
  9
$ACADVER
  1
AC1009
  9
$INSBASE
 10
0.0
 20
0.0
 30
0.0
  9
$EXTMIN
 10
0.0
 20
0.0
 30
0.0
  9
$EXTMAX
 10
0.0
 20
0.0
 30
0.0
  0
ENDSEC
  0
SECTION
  2
TABLES
  0
TABLE
  2
VPORT
 70
0
  0
ENDTAB
  0
TABLE
  2
LTYPE
 70
1
  0
LTYPE
  2
CONTINUOUS
 70
0
  3
Solid line
 72
65
 73
0
 40
0.0
  0
ENDTAB
  0
TABLE
  2
LAYER
 70
1
  0
LAYER
  2
0
 70
64
 62
7
  6
continuous
  0
ENDTAB
  0
TABLE
  2
STYLE
 70
1
  0
STYLE
  2
STANDARD
 70
0
 40
0
 41
1.0
 50
0.0
 71
0
 42
1
 3
ARIAL.TTF
 4

  0
ENDTAB
  0
TABLE
  2
VIEW
 70
0
  0
ENDTAB
  0
ENDSEC
  0
SECTION
  2
BLOCKS
  0
BLOCK
  8
0
  2
BINDER002
 70
0
 10
0.0
 20
0.0
 30
0.0
  3
BINDER002
  0
LINE
  8
0
 62
40
 10
-44.45
 20
-241.3
 30
0.0
 11
0.0
 21
-241.3
 31
0.0
  0
LINE
  8
0
 62
40
 10
-44.45
 20
241.3
 30
0.0
 11
-44.45
 21
-241.3
 31
0.0
  0
LINE
  8
0
 62
40
 10
-1e-15
 20
-241.3
 30
0.0
 11
-1e-15
 21
241.3
 31
0.0
  0
LINE
  8
0
 62
40
 10
-1e-15
 20
241.3
 30
0.0
 11
-44.45
 21
241.3
 31
0.0
  0
ARC
  8
0
 62
40
 10
-6.225000000000002
 20
-234.5
 30
0.0
 40
3.25
 50
-180.0
 51
-0.0
  0
LINE
  8
0
 62
40
 10
-9.475000000000003
 20
-234.5
 30
0.0
 11
-9.475000000000003
 21
-231.0
 31
0.0
  0
LINE
  8
0
 62
40
 10
-2.9750000000000023
 20
-234.5
 30
0.0
 11
-2.9750000000000023
 21
-231.0
 31
0.0
  0
ARC
  8
0
 62
40
 10
-6.225000000000002
 20
-231.0
 30
0.0
 40
3.25
 50
-0.0
 51
-180.0
  0
CIRCLE
  8
0
 62
40
 10
-12.224999999999996
 20
-209.0
 30
0.0
 40
3.0
  0
LINE
  8
0
 62
40
 10
-35.225
 20
-88.0
 30
0.0
 11
-35.225
 21
-190.0
 31
0.0
  0
LINE
  8
0
 62
40
 10
-9.225000000000003
 20
-88.0
 30
0.0
 11
-35.225
 21
-88.0
 31
0.0
  0
LINE
  8
0
 62
40
 10
-35.225
 20
-190.0
 30
0.0
 11
-9.225000000000001
 21
-190.0
 31
0.0
  0
LINE
  8
0
 62
40
 10
-9.225000000000001
 20
-190.0
 30
0.0
 11
-9.225000000000001
 21
-88.0
 31
0.0
  0
CIRCLE
  8
0
 62
40
 10
-10.225000000000001
 20
-62.5
 30
0.0
 40
1.6
  0
CIRCLE
  8
0
 62
40
 10
-10.225000000000001
 20
-35.5
 30
0.0
 40
1.6
  0
CIRCLE
  8
0
 62
40
 10
-10.225000000000001
 20
-8.5
 30
0.0
 40
1.6
  0
CIRCLE
  8
0
 62
40
 10
-22.224999999999998
 20
-72.0
 30
0.0
 40
11.9
  0
CIRCLE
  8
0
 62
40
 10
-22.224999999999998
 20
-45.0
 30
0.0
 40
11.9
  0
CIRCLE
  8
0
 62
40
 10
-22.224999999999998
 20
-18.0
 30
0.0
 40
11.9
  0
CIRCLE
  8
0
 62
40
 10
-32.224999999999994
 20
-209.0
 30
0.0
 40
3.0
  0
ARC
  8
0
 62
40
 10
-38.225
 20
-234.5
 30
0.0
 40
3.25
 50
-180.0
 51
-0.0
  0
LINE
  8
0
 62
40
 10
-41.475
 20
-234.5
 30
0.0
 11
-41.475
 21
-231.0
 31
0.0
  0
LINE
  8
0
 62
40
 10
-34.975
 20
-234.5
 30
0.0
 11
-34.975
 21
-231.0
 31
0.0
  0
ARC
  8
0
 62
40
 10
-38.225
 20
-231.0
 30
0.0
 40
3.25
 50
-0.0
 51
-180.0
  0
CIRCLE
  8
0
 62
40
 10
-34.225
 20
-81.5
 30
0.0
 40
1.6
  0
CIRCLE
  8
0
 62
40
 10
-34.225
 20
-54.5
 30
0.0
 40
1.6
  0
CIRCLE
  8
0
 62
40
 10
-34.225
 20
-27.5
 30
0.0
 40
1.6
  0
CIRCLE
  8
0
 62
40
 10
-6.225000000000002
 20
0.0
 30
0.0
 40
1.6
  0
CIRCLE
  8
0
 62
40
 10
-10.225000000000001
 20
51.5
 30
0.0
 40
1.6
  0
CIRCLE
  8
0
 62
40
 10
-10.225000000000001
 20
78.5
 30
0.0
 40
1.6
  0
CIRCLE
  8
0
 62
40
 10
-10.225000000000001
 20
105.5
 30
0.0
 40
1.6
  0
CIRCLE
  8
0
 62
40
 10
-18.725
 20
0.0
 30
0.0
 40
1.5
  0
CIRCLE
  8
0
 62
40
 10
-22.224999999999998
 20
42.0
 30
0.0
 40
11.9
  0
CIRCLE
  8
0
 62
40
 10
-22.224999999999998
 20
69.0
 30
0.0
 40
11.9
  0
CIRCLE
  8
0
 62
40
 10
-22.224999999999998
 20
96.0
 30
0.0
 40
11.9
  0
CIRCLE
  8
0
 62
40
 10
-10.225000000000001
 20
132.5
 30
0.0
 40
1.6
  0
CIRCLE
  8
0
 62
40
 10
-10.225000000000001
 20
159.5
 30
0.0
 40
1.6
  0
ARC
  8
0
 62
40
 10
-6.225000000000004
 20
231.00000000000003
 30
0.0
 40
3.25
 50
-180.0
 51
-0.0
  0
LINE
  8
0
 62
40
 10
-9.475000000000005
 20
231.00000000000003
 30
0.0
 11
-9.475000000000005
 21
234.50000000000003
 31
0.0
  0
LINE
  8
0
 62
40
 10
-2.975000000000004
 20
231.00000000000003
 30
0.0
 11
-2.975000000000004
 21
234.50000000000003
 31
0.0
  0
ARC
  8
0
 62
40
 10
-6.225000000000004
 20
234.50000000000003
 30
0.0
 40
3.25
 50
-0.0
 51
-180.0
  0
CIRCLE
  8
0
 62
40
 10
-10.225000000000001
 20
186.5
 30
0.0
 40
1.6
  0
CIRCLE
  8
0
 62
40
 10
-12.224999999999996
 20
209.0
 30
0.0
 40
3.0
  0
CIRCLE
  8
0
 62
40
 10
-22.224999999999998
 20
123.0
 30
0.0
 40
11.9
  0
CIRCLE
  8
0
 62
40
 10
-22.224999999999998
 20
150.0
 30
0.0
 40
11.9
  0
CIRCLE
  8
0
 62
40
 10
-22.224999999999998
 20
177.0
 30
0.0
 40
11.9
  0
CIRCLE
  8
0
 62
40
 10
-25.725
 20
0.0
 30
0.0
 40
1.5
  0
CIRCLE
  8
0
 62
40
 10
-34.225
 20
32.5
 30
0.0
 40
1.6
  0
CIRCLE
  8
0
 62
40
 10
-38.225
 20
0.0
 30
0.0
 40
1.6
  0
CIRCLE
  8
0
 62
40
 10
-34.225
 20
59.5
 30
0.0
 40
1.6
  0
CIRCLE
  8
0
 62
40
 10
-34.225
 20
86.5
 30
0.0
 40
1.6
  0
CIRCLE
  8
0
 62
40
 10
-34.225
 20
113.5
 30
0.0
 40
1.6
  0
CIRCLE
  8
0
 62
40
 10
-34.225
 20
140.5
 30
0.0
 40
1.6
  0
CIRCLE
  8
0
 62
40
 10
-34.225
 20
167.5
 30
0.0
 40
1.6
  0
CIRCLE
  8
0
 62
40
 10
-32.224999999999994
 20
209.0
 30
0.0
 40
3.0
  0
ARC
  8
0
 62
40
 10
-38.225
 20
231.00000000000003
 30
0.0
 40
3.25
 50
-180.0
 51
-0.0
  0
LINE
  8
0
 62
40
 10
-41.475
 20
231.00000000000003
 30
0.0
 11
-41.475
 21
234.50000000000003
 31
0.0
  0
LINE
  8
0
 62
40
 10
-34.975
 20
231.00000000000003
 30
0.0
 11
-34.975
 21
234.50000000000003
 31
0.0
  0
ARC
  8
0
 62
40
 10
-38.225
 20
234.50000000000003
 30
0.0
 40
3.25
 50
-0.0
 51
-180.0
  0
ENDBLK
  0
ENDSEC
  0
SECTION
  2
ENTITIES
  0
INSERT
  2
BINDER002
  8
0
 62
40
 10
0.0
 20
0.0
 30
0.0
  0
ENDSEC
  0
EOF
